ISO-10303-21;
HEADER;
FILE_DESCRIPTION (( 'STEP AP203' ),
    '1' );
FILE_NAME ('OM-50-VT.STEP',
    '2008-06-24T10:34:40',
    ( 'BSI05' ),
    ( 'BAYSTATE' ),
    'SwSTEP 2.0',
    'SolidWorks 2007',
    '' );
FILE_SCHEMA (( 'CONFIG_CONTROL_DESIGN' ));
ENDSEC;

DATA;
#1 = ORIENTED_EDGE ( 'NONE', *, *, #29, .F. ) ;
#2 = ADVANCED_FACE ( 'NONE', ( #48 ), #53, .T. ) ;
#3 = APPROVAL_DATE_TIME ( #63, #174 ) ;
#4 = APPROVAL_PERSON_ORGANIZATION ( #176, #174, #5 ) ;
#5 = APPROVAL_ROLE ( '' ) ;
#6 = EDGE_CURVE ( 'NONE', #24, #32, #52, .T. ) ;
#7 = ADVANCED_FACE ( 'NONE', ( #60 ), #41, .T. ) ;
#8 = ORIENTED_EDGE ( 'NONE', *, *, #6, .T. ) ;
#9 = EDGE_CURVE ( 'NONE', #24, #35, #70, .T. ) ;
#10 = ADVANCED_FACE ( 'NONE', ( #71 ), #62, .T. ) ;
#11 = EDGE_LOOP ( 'NONE', ( #14, #15, #17, #28 ) ) ;
#12 = ORIENTED_EDGE ( 'NONE', *, *, #6, .F. ) ;
#13 = ADVANCED_FACE ( 'NONE', ( #77 ), #120, .T. ) ;
#14 = ORIENTED_EDGE ( 'NONE', *, *, #21, .F. ) ;
#15 = ORIENTED_EDGE ( 'NONE', *, *, #16, .F. ) ;
#16 = EDGE_CURVE ( 'NONE', #32, #46, #75, .T. ) ;
#17 = ORIENTED_EDGE ( 'NONE', *, *, #26, .T. ) ;
#18 = ORIENTED_EDGE ( 'NONE', *, *, #16, .T. ) ;
#19 = CLOSED_SHELL ( 'NONE', ( #13, #7, #10, #2 ) ) ;
#20 = EDGE_LOOP ( 'NONE', ( #33, #45, #30, #12 ) ) ;
#21 = EDGE_CURVE ( 'NONE', #46, #35, #192, .T. ) ;
#22 = ORIENTED_EDGE ( 'NONE', *, *, #34, .T. ) ;
#23 = EDGE_LOOP ( 'NONE', ( #1, #27, #8, #18 ) ) ;
#24 = VERTEX_POINT ( 'NONE', #83 ) ;
#25 = ORIENTED_EDGE ( 'NONE', *, *, #26, .F. ) ;
#26 = EDGE_CURVE ( 'NONE', #32, #24, #90, .T. ) ;
#27 = ORIENTED_EDGE ( 'NONE', *, *, #9, .F. ) ;
#28 = ORIENTED_EDGE ( 'NONE', *, *, #9, .T. ) ;
#29 = EDGE_CURVE ( 'NONE', #35, #46, #147, .T. ) ;
#30 = ORIENTED_EDGE ( 'NONE', *, *, #31, .T. ) ;
#31 = EDGE_CURVE ( 'NONE', #46, #32, #160, .T. ) ;
#32 = VERTEX_POINT ( 'NONE', #119 ) ;
#33 = ORIENTED_EDGE ( 'NONE', *, *, #34, .F. ) ;
#34 = EDGE_CURVE ( 'NONE', #35, #24, #89, .T. ) ;
#35 = VERTEX_POINT ( 'NONE', #145 ) ;
#36 = MANIFOLD_SOLID_BREP ( 'NONE', #19 ) ;
#37 = EDGE_LOOP ( 'NONE', ( #38, #39, #22, #25 ) ) ;
#38 = ORIENTED_EDGE ( 'NONE', *, *, #31, .F. ) ;
#39 = ORIENTED_EDGE ( 'NONE', *, *, #21, .T. ) ;
#40 = AXIS2_PLACEMENT_3D ( 'NONE', #54, #73, #72 ) ;
#41 = TOROIDAL_SURFACE ( 'NONE', #40, 0.8850000000000000100, 0.03999999999999997300 ) ;
#42 = CARTESIAN_POINT ( 'NONE',  ( 0.1000000000000001300, 0.0000000000000000000, 0.0000000000000000000 ) ) ;
#43 = AXIS2_PLACEMENT_3D ( 'NONE', #42, #61, #65 ) ;
#44 = AXIS2_PLACEMENT_3D ( 'NONE', #57, #56, #47 ) ;
#45 = ORIENTED_EDGE ( 'NONE', *, *, #29, .T. ) ;
#46 = VERTEX_POINT ( 'NONE', #122 ) ;
#47 = DIRECTION ( 'NONE',  ( 0.0000000000000000000, 0.0000000000000000000, 1.000000000000000000 ) ) ;
#48 = FACE_OUTER_BOUND ( 'NONE', #23, .T. ) ;
#49 = LOCAL_TIME ( 16, 4, 40.00000000000000000, #50 ) ;
#50 = COORDINATED_UNIVERSAL_TIME_OFFSET ( 5, 30, .AHEAD. ) ;
#51 = AXIS2_PLACEMENT_3D ( 'NONE', #59, #58, #55 ) ;
#52 = CIRCLE ( 'NONE', #51, 0.8449999999999999700 ) ;
#53 = TOROIDAL_SURFACE ( 'NONE', #44, 0.8850000000000000100, 0.03999999999999997300 ) ;
#54 = CARTESIAN_POINT ( 'NONE',  ( 0.1000000000000001300, 0.0000000000000000000, 0.0000000000000000000 ) ) ;
#55 = DIRECTION ( 'NONE',  ( 0.0000000000000000000, 0.0000000000000000000, 1.000000000000000000 ) ) ;
#56 = DIRECTION ( 'NONE',  ( -1.000000000000000000, 0.0000000000000000000, 0.0000000000000000000 ) ) ;
#57 = CARTESIAN_POINT ( 'NONE',  ( 0.1000000000000001300, 0.0000000000000000000, 0.0000000000000000000 ) ) ;
#58 = DIRECTION ( 'NONE',  ( -1.000000000000000000, 0.0000000000000000000, 0.0000000000000000000 ) ) ;
#59 = CARTESIAN_POINT ( 'NONE',  ( 0.1000000000000001300, 0.0000000000000000000, 0.0000000000000000000 ) ) ;
#60 = FACE_OUTER_BOUND ( 'NONE', #37, .T. ) ;
#61 = DIRECTION ( 'NONE',  ( -1.000000000000000000, 0.0000000000000000000, 0.0000000000000000000 ) ) ;
#62 = TOROIDAL_SURFACE ( 'NONE', #43, 0.8850000000000000100, 0.03999999999999997300 ) ;
#63 = DATE_AND_TIME ( #64, #49 ) ;
#64 = CALENDAR_DATE ( 2008, 24, 6 ) ;
#65 = DIRECTION ( 'NONE',  ( 0.0000000000000000000, 0.0000000000000000000, 1.000000000000000000 ) ) ;
#66 = DIRECTION ( 'NONE',  ( 0.0000000000000000000, -1.224646799147354900E-016, 1.000000000000000000 ) ) ;
#67 = DIRECTION ( 'NONE',  ( 0.0000000000000000000, 1.000000000000000000, 1.224646799147353200E-016 ) ) ;
#68 = CARTESIAN_POINT ( 'NONE',  ( 0.1000000000000001300, 1.083812417245407700E-016, -0.8850000000000000100 ) ) ;
#69 = AXIS2_PLACEMENT_3D ( 'NONE', #68, #67, #66 ) ;
#70 = CIRCLE ( 'NONE', #69, 0.03999999999999998000 ) ;
#71 = FACE_OUTER_BOUND ( 'NONE', #11, .T. ) ;
#72 = DIRECTION ( 'NONE',  ( 0.0000000000000000000, 0.0000000000000000000, 1.000000000000000000 ) ) ;
#73 = DIRECTION ( 'NONE',  ( -1.000000000000000000, 0.0000000000000000000, 0.0000000000000000000 ) ) ;
#74 = CC_DESIGN_APPROVAL ( #174, ( #186 ) ) ;
#75 = CIRCLE ( 'NONE', #121, 0.03999999999999998000 ) ;
#76 = UNCERTAINTY_MEASURE_WITH_UNIT (LENGTH_MEASURE( 1.000000000000000100E-005 ), #142, 'distance_accuracy_value', 'NONE');
#77 = FACE_OUTER_BOUND ( 'NONE', #20, .T. ) ;
#78 = DIRECTION ( 'NONE',  ( 0.0000000000000000000, 0.0000000000000000000, 1.000000000000000000 ) ) ;
#79 = DIRECTION ( 'NONE',  ( -1.000000000000000000, 0.0000000000000000000, 0.0000000000000000000 ) ) ;
#80 = DIRECTION ( 'NONE',  ( 0.0000000000000000000, 0.0000000000000000000, 1.000000000000000000 ) ) ;
#81 =( LENGTH_UNIT ( ) NAMED_UNIT ( * ) SI_UNIT ( $, .METRE. ) );
#82 = CARTESIAN_POINT ( 'NONE',  ( 0.1000000000000001300, 0.0000000000000000000, 0.0000000000000000000 ) ) ;
#83 = CARTESIAN_POINT ( 'NONE',  ( 0.1000000000000001300, 1.034826545279513500E-016, -0.8449999999999999700 ) ) ;
#84 = DIRECTION ( 'NONE',  ( 0.0000000000000000000, 0.0000000000000000000, 1.000000000000000000 ) ) ;
#85 = DIRECTION ( 'NONE',  ( -1.000000000000000000, 0.0000000000000000000, 0.0000000000000000000 ) ) ;
#86 = DIRECTION ( 'NONE',  ( 1.000000000000000000, 0.0000000000000000000, 0.0000000000000000000 ) ) ;
#87 = DIRECTION ( 'NONE',  ( 0.0000000000000000000, 0.0000000000000000000, 1.000000000000000000 ) ) ;
#88 = CARTESIAN_POINT ( 'NONE',  ( 0.1000000000000001300, 0.0000000000000000000, 0.0000000000000000000 ) ) ;
#89 = CIRCLE ( 'NONE', #144, 0.03999999999999998000 ) ;
#90 = CIRCLE ( 'NONE', #127, 0.8449999999999999700 ) ;
#91 = LENGTH_MEASURE_WITH_UNIT ( LENGTH_MEASURE( 0.02539999999999999900 ), #81 );
#92 = DIMENSIONAL_EXPONENTS ( 1.000000000000000000, 0.0000000000000000000, 0.0000000000000000000, 0.0000000000000000000, 0.0000000000000000000, 0.0000000000000000000, 0.0000000000000000000 ) ;
#93 = APPROVAL_ROLE ( '' ) ;
#94 = APPROVAL ( #95, 'UNSPECIFIED' ) ;
#95 = APPROVAL_STATUS ( 'not_yet_approved' ) ;
#96 = PERSON_AND_ORGANIZATION ( #124, #105 ) ;
#97 = PRODUCT_DEFINITION_FORMATION_WITH_SPECIFIED_SOURCE ( 'ANY', '', #125, .NOT_KNOWN. ) ;
#98 = CC_DESIGN_DATE_AND_TIME_ASSIGNMENT ( #100, #99, ( #156 ) ) ;
#99 = DATE_TIME_ROLE ( 'creation_date' ) ;
#100 = DATE_AND_TIME ( #101, #102 ) ;
#101 = CALENDAR_DATE ( 2008, 24, 6 ) ;
#102 = LOCAL_TIME ( 16, 4, 40.00000000000000000, #110 ) ;
#103 = AXIS2_PLACEMENT_3D ( 'NONE', #88, #161, #80 ) ;
#104 = CC_DESIGN_PERSON_AND_ORGANIZATION_ASSIGNMENT ( #190, #123, ( #125 ) ) ;
#105 = ORGANIZATION ( 'UNSPECIFIED', 'UNSPECIFIED', '' ) ;
#106 = DIRECTION ( 'NONE',  ( 0.0000000000000000000, -1.224646799147354900E-016, 1.000000000000000000 ) ) ;
#107 = DIRECTION ( 'NONE',  ( 0.0000000000000000000, 1.000000000000000000, 1.224646799147353200E-016 ) ) ;
#108 = ADVANCED_BREP_SHAPE_REPRESENTATION ( 'OM-50-VT', ( #36, #173 ), #109 ) ;
#109 =( GEOMETRIC_REPRESENTATION_CONTEXT ( 3 ) GLOBAL_UNCERTAINTY_ASSIGNED_CONTEXT ( ( #76 ) ) GLOBAL_UNIT_ASSIGNED_CONTEXT ( ( #142, #166, #163 ) ) REPRESENTATION_CONTEXT ( 'NONE', 'WORKASPACE' ) );
#110 = COORDINATED_UNIVERSAL_TIME_OFFSET ( 5, 30, .AHEAD. ) ;
#111 = CC_DESIGN_PERSON_AND_ORGANIZATION_ASSIGNMENT ( #113, #112, ( #156 ) ) ;
#112 = PERSON_AND_ORGANIZATION_ROLE ( 'creator' ) ;
#113 = PERSON_AND_ORGANIZATION ( #124, #105 ) ;
#114 = CC_DESIGN_APPROVAL ( #153, ( #156 ) ) ;
#115 = APPROVAL_DATE_TIME ( #116, #153 ) ;
#116 = DATE_AND_TIME ( #148, #149 ) ;
#117 = DIRECTION ( 'NONE',  ( 0.0000000000000000000, 0.0000000000000000000, -1.000000000000000000 ) ) ;
#118 = DIRECTION ( 'NONE',  ( 0.0000000000000000000, -1.000000000000000000, 0.0000000000000000000 ) ) ;
#119 = CARTESIAN_POINT ( 'NONE',  ( 0.1000000000000001300, 0.0000000000000000000, 0.8449999999999999700 ) ) ;
#120 = TOROIDAL_SURFACE ( 'NONE', #103, 0.8850000000000000100, 0.03999999999999997300 ) ;
#121 = AXIS2_PLACEMENT_3D ( 'NONE', #139, #191, #140 ) ;
#122 = CARTESIAN_POINT ( 'NONE',  ( 0.1000000000000001300, 0.0000000000000000000, 0.9249999999999999300 ) ) ;
#123 = PERSON_AND_ORGANIZATION_ROLE ( 'design_owner' ) ;
#124 = PERSON ( 'UNSPECIFIED', 'UNSPECIFIED', 'UNSPECIFIED', ('UNSPECIFIED'), ('UNSPECIFIED'), ('UNSPECIFIED') ) ;
#125 = PRODUCT ( 'OM-50-VT', 'OM-50-VT', '', ( #167 ) ) ;
#126 = CARTESIAN_POINT ( 'NONE',  ( 0.1000000000000001300, 0.0000000000000000000, 0.0000000000000000000 ) ) ;
#127 = AXIS2_PLACEMENT_3D ( 'NONE', #126, #85, #84 ) ;
#128 = PERSON_AND_ORGANIZATION ( #124, #105 ) ;
#129 = CC_DESIGN_PERSON_AND_ORGANIZATION_ASSIGNMENT ( #131, #130, ( #97 ) ) ;
#130 = PERSON_AND_ORGANIZATION_ROLE ( 'creator' ) ;
#131 = PERSON_AND_ORGANIZATION ( #124, #105 ) ;
#132 = CC_DESIGN_APPROVAL ( #94, ( #97 ) ) ;
#133 = APPROVAL_DATE_TIME ( #134, #94 ) ;
#134 = DATE_AND_TIME ( #135, #136 ) ;
#135 = CALENDAR_DATE ( 2008, 24, 6 ) ;
#136 = LOCAL_TIME ( 16, 4, 40.00000000000000000, #137 ) ;
#137 = COORDINATED_UNIVERSAL_TIME_OFFSET ( 5, 30, .AHEAD. ) ;
#138 = APPROVAL_PERSON_ORGANIZATION ( #96, #94, #93 ) ;
#139 = CARTESIAN_POINT ( 'NONE',  ( 0.1000000000000001300, 0.0000000000000000000, 0.8850000000000000100 ) ) ;
#140 = DIRECTION ( 'NONE',  ( 0.0000000000000000000, 0.0000000000000000000, -1.000000000000000000 ) ) ;
#141 = AXIS2_PLACEMENT_3D ( 'NONE', #165, #118, #117 ) ;
#142 =( CONVERSION_BASED_UNIT ( 'INCH', #91 ) LENGTH_UNIT ( ) NAMED_UNIT ( #92 ) );
#143 = CARTESIAN_POINT ( 'NONE',  ( 0.1000000000000001300, 1.083812417245407700E-016, -0.8850000000000000100 ) ) ;
#144 = AXIS2_PLACEMENT_3D ( 'NONE', #143, #107, #106 ) ;
#145 = CARTESIAN_POINT ( 'NONE',  ( 0.1000000000000001300, 1.132798289211301800E-016, -0.9249999999999999300 ) ) ;
#146 = AXIS2_PLACEMENT_3D ( 'NONE', #164, #79, #78 ) ;
#147 = CIRCLE ( 'NONE', #146, 0.9249999999999999300 ) ;
#148 = CALENDAR_DATE ( 2008, 24, 6 ) ;
#149 = LOCAL_TIME ( 16, 4, 40.00000000000000000, #150 ) ;
#150 = COORDINATED_UNIVERSAL_TIME_OFFSET ( 5, 30, .AHEAD. ) ;
#151 = APPROVAL_PERSON_ORGANIZATION ( #155, #153, #152 ) ;
#152 = APPROVAL_ROLE ( '' ) ;
#153 = APPROVAL ( #154, 'UNSPECIFIED' ) ;
#154 = APPROVAL_STATUS ( 'not_yet_approved' ) ;
#155 = PERSON_AND_ORGANIZATION ( #124, #105 ) ;
#156 = PRODUCT_DEFINITION ( 'UNKNOWN', '', #97, #157 ) ;
#157 = DESIGN_CONTEXT ( 'detailed design', #159, 'design' ) ;
#158 = APPLICATION_PROTOCOL_DEFINITION ( 'international standard', 'config_control_design', 1994, #159 ) ;
#159 = APPLICATION_CONTEXT ( 'configuration controlled 3d designs of mechanical parts and assemblies' ) ;
#160 = CIRCLE ( 'NONE', #141, 0.03999999999999998000 ) ;
#161 = DIRECTION ( 'NONE',  ( -1.000000000000000000, 0.0000000000000000000, 0.0000000000000000000 ) ) ;
#162 = DIRECTION ( 'NONE',  ( -1.000000000000000000, 0.0000000000000000000, 0.0000000000000000000 ) ) ;
#163 =( NAMED_UNIT ( * ) SI_UNIT ( $, .STERADIAN. ) SOLID_ANGLE_UNIT ( ) );
#164 = CARTESIAN_POINT ( 'NONE',  ( 0.1000000000000001300, 0.0000000000000000000, 0.0000000000000000000 ) ) ;
#165 = CARTESIAN_POINT ( 'NONE',  ( 0.1000000000000001300, 0.0000000000000000000, 0.8850000000000000100 ) ) ;
#166 =( NAMED_UNIT ( * ) PLANE_ANGLE_UNIT ( ) SI_UNIT ( $, .RADIAN. ) );
#167 = MECHANICAL_CONTEXT ( 'NONE', #169, 'mechanical' ) ;
#168 = APPLICATION_PROTOCOL_DEFINITION ( 'international standard', 'config_control_design', 1994, #169 ) ;
#169 = APPLICATION_CONTEXT ( 'configuration controlled 3d designs of mechanical parts and assemblies' ) ;
#170 = AXIS2_PLACEMENT_3D ( 'NONE', #82, #162, #171 ) ;
#171 = DIRECTION ( 'NONE',  ( 0.0000000000000000000, 0.0000000000000000000, 1.000000000000000000 ) ) ;
#172 = CARTESIAN_POINT ( 'NONE',  ( 0.0000000000000000000, 0.0000000000000000000, 0.0000000000000000000 ) ) ;
#173 = AXIS2_PLACEMENT_3D ( 'NONE', #172, #87, #86 ) ;
#174 = APPROVAL ( #175, 'UNSPECIFIED' ) ;
#175 = APPROVAL_STATUS ( 'not_yet_approved' ) ;
#176 = PERSON_AND_ORGANIZATION ( #124, #105 ) ;
#177 = CC_DESIGN_DATE_AND_TIME_ASSIGNMENT ( #179, #178, ( #186 ) ) ;
#178 = DATE_TIME_ROLE ( 'classification_date' ) ;
#179 = DATE_AND_TIME ( #180, #181 ) ;
#180 = CALENDAR_DATE ( 2008, 24, 6 ) ;
#181 = LOCAL_TIME ( 16, 4, 40.00000000000000000, #182 ) ;
#182 = COORDINATED_UNIVERSAL_TIME_OFFSET ( 5, 30, .AHEAD. ) ;
#183 = CC_DESIGN_PERSON_AND_ORGANIZATION_ASSIGNMENT ( #185, #184, ( #186 ) ) ;
#184 = PERSON_AND_ORGANIZATION_ROLE ( 'classification_officer' ) ;
#185 = PERSON_AND_ORGANIZATION ( #124, #105 ) ;
#186 = SECURITY_CLASSIFICATION ( '', '', #187 ) ;
#187 = SECURITY_CLASSIFICATION_LEVEL ( 'unclassified' ) ;
#188 = CC_DESIGN_PERSON_AND_ORGANIZATION_ASSIGNMENT ( #128, #189, ( #97 ) ) ;
#189 = PERSON_AND_ORGANIZATION_ROLE ( 'design_supplier' ) ;
#190 = PERSON_AND_ORGANIZATION ( #124, #105 ) ;
#191 = DIRECTION ( 'NONE',  ( 0.0000000000000000000, -1.000000000000000000, 0.0000000000000000000 ) ) ;
#192 = CIRCLE ( 'NONE', #170, 0.9249999999999999300 ) ;
#193 = PRODUCT_RELATED_PRODUCT_CATEGORY ( 'detail', '', ( #125 ) ) ;
#194 = SHAPE_DEFINITION_REPRESENTATION ( #195, #108 ) ;
#195 = PRODUCT_DEFINITION_SHAPE ( 'NONE', 'NONE',  #156 ) ;
#196 = CC_DESIGN_SECURITY_CLASSIFICATION ( #186, ( #97 ) ) ;
ENDSEC;
END-ISO-10303-21;
