ISO-10303-21;
HEADER;
FILE_DESCRIPTION (( 'STEP AP203' ),
    '1' );
FILE_NAME ('OM-63-SI.STEP',
    '2006-03-03T08:06:28',
    ( 'bay06' ),
    ( '' ),
    'SwSTEP 2.0',
    'SolidWorks 2008',
    '' );
FILE_SCHEMA (( 'CONFIG_CONTROL_DESIGN' ));
ENDSEC;

DATA;
#1 = ORIENTED_EDGE ( 'NONE', *, *, #29, .T. ) ;
#2 = CLOSED_SHELL ( 'NONE', ( #6, #23, #39, #33 ) ) ;
#3 = ORIENTED_EDGE ( 'NONE', *, *, #31, .T. ) ;
#4 = VERTEX_POINT ( 'NONE', #40 ) ;
#5 = MANIFOLD_SOLID_BREP ( 'NONE', #2 ) ;
#6 = ADVANCED_FACE ( 'NONE', ( #38 ), #54, .T. ) ;
#7 = EDGE_LOOP ( 'NONE', ( #41, #32, #34, #35 ) ) ;
#8 = EDGE_CURVE ( 'NONE', #14, #12, #68, .T. ) ;
#9 = EDGE_CURVE ( 'NONE', #14, #4, #70, .T. ) ;
#10 = EDGE_LOOP ( 'NONE', ( #13, #11, #25, #30 ) ) ;
#11 = ORIENTED_EDGE ( 'NONE', *, *, #9, .T. ) ;
#12 = VERTEX_POINT ( 'NONE', #59 ) ;
#13 = ORIENTED_EDGE ( 'NONE', *, *, #8, .F. ) ;
#14 = VERTEX_POINT ( 'NONE', #64 ) ;
#15 = ORIENTED_EDGE ( 'NONE', *, *, #9, .F. ) ;
#16 = ORIENTED_EDGE ( 'NONE', *, *, #42, .F. ) ;
#17 = EDGE_LOOP ( 'NONE', ( #20, #28, #19, #21 ) ) ;
#18 = VERTEX_POINT ( 'NONE', #63 ) ;
#19 = ORIENTED_EDGE ( 'NONE', *, *, #8, .T. ) ;
#20 = ORIENTED_EDGE ( 'NONE', *, *, #26, .F. ) ;
#21 = ORIENTED_EDGE ( 'NONE', *, *, #22, .F. ) ;
#22 = EDGE_CURVE ( 'NONE', #18, #12, #71, .T. ) ;
#23 = ADVANCED_FACE ( 'NONE', ( #74 ), #73, .T. ) ;
#24 = EDGE_LOOP ( 'NONE', ( #15, #16, #1, #3 ) ) ;
#25 = ORIENTED_EDGE ( 'NONE', *, *, #26, .T. ) ;
#26 = EDGE_CURVE ( 'NONE', #4, #18, #99, .T. ) ;
#27 = EDGE_CURVE ( 'NONE', #4, #14, #105, .T. ) ;
#28 = ORIENTED_EDGE ( 'NONE', *, *, #27, .T. ) ;
#29 = EDGE_CURVE ( 'NONE', #12, #18, #87, .T. ) ;
#30 = ORIENTED_EDGE ( 'NONE', *, *, #29, .F. ) ;
#31 = EDGE_CURVE ( 'NONE', #18, #4, #95, .T. ) ;
#32 = ORIENTED_EDGE ( 'NONE', *, *, #31, .F. ) ;
#33 = ADVANCED_FACE ( 'NONE', ( #96 ), #75, .T. ) ;
#34 = ORIENTED_EDGE ( 'NONE', *, *, #22, .T. ) ;
#35 = ORIENTED_EDGE ( 'NONE', *, *, #42, .T. ) ;
#36 = SHAPE_DEFINITION_REPRESENTATION ( #37, #141 ) ;
#37 = PRODUCT_DEFINITION_SHAPE ( 'NONE', 'NONE',  #130 ) ;
#38 = FACE_OUTER_BOUND ( 'NONE', #10, .T. ) ;
#39 = ADVANCED_FACE ( 'NONE', ( #76 ), #82, .T. ) ;
#40 = CARTESIAN_POINT ( 'NONE',  ( 0.1000000000000001400, 0.0000000000000000000, 1.160000000000000100 ) ) ;
#41 = ORIENTED_EDGE ( 'NONE', *, *, #27, .F. ) ;
#42 = EDGE_CURVE ( 'NONE', #12, #14, #108, .T. ) ;
#43 = DIRECTION ( 'NONE',  ( -1.000000000000000000, -0.0000000000000000000, -0.0000000000000000000 ) ) ;
#44 = DIRECTION ( 'NONE',  ( -1.000000000000000000, -0.0000000000000000000, -0.0000000000000000000 ) ) ;
#45 = CARTESIAN_POINT ( 'NONE',  ( 0.1000000000000001400, 0.0000000000000000000, 0.0000000000000000000 ) ) ;
#46 = DIRECTION ( 'NONE',  ( 0.0000000000000000000, 0.0000000000000000000, 1.000000000000000000 ) ) ;
#47 = AXIS2_PLACEMENT_3D ( 'NONE', #45, #44, #46 ) ;
#48 = DIRECTION ( 'NONE',  ( -1.000000000000000000, -0.0000000000000000000, -0.0000000000000000000 ) ) ;
#49 = CARTESIAN_POINT ( 'NONE',  ( 0.1000000000000001400, 0.0000000000000000000, 0.0000000000000000000 ) ) ;
#50 = CARTESIAN_POINT ( 'NONE',  ( 0.1000000000000001400, 0.0000000000000000000, 0.0000000000000000000 ) ) ;
#51 = AXIS2_PLACEMENT_3D ( 'NONE', #50, #43, #58 ) ;
#52 = DIRECTION ( 'NONE',  ( 0.0000000000000000000, 0.0000000000000000000, 1.000000000000000000 ) ) ;
#53 = AXIS2_PLACEMENT_3D ( 'NONE', #49, #48, #52 ) ;
#54 = TOROIDAL_SURFACE ( 'NONE', #53, 1.120000000000000100, 0.03999999999999997300 ) ;
#55 = CARTESIAN_POINT ( 'NONE',  ( 0.1000000000000001400, 1.371604415045035500E-016, -1.120000000000000100 ) ) ;
#56 = DIRECTION ( 'NONE',  ( 0.0000000000000000000, -1.224646799147351000E-016, 1.000000000000000000 ) ) ;
#57 = DIRECTION ( 'NONE',  ( -0.0000000000000000000, 1.000000000000000000, 1.224646799147353200E-016 ) ) ;
#58 = DIRECTION ( 'NONE',  ( 0.0000000000000000000, 0.0000000000000000000, 1.000000000000000000 ) ) ;
#59 = CARTESIAN_POINT ( 'NONE',  ( 0.1000000000000001400, 1.322618543079141500E-016, -1.080000000000000100 ) ) ;
#60 = DIRECTION ( 'NONE',  ( 0.0000000000000000000, 0.0000000000000000000, 1.000000000000000000 ) ) ;
#61 = DIRECTION ( 'NONE',  ( -1.000000000000000000, -0.0000000000000000000, -0.0000000000000000000 ) ) ;
#62 = CARTESIAN_POINT ( 'NONE',  ( 0.1000000000000001400, 0.0000000000000000000, 0.0000000000000000000 ) ) ;
#63 = CARTESIAN_POINT ( 'NONE',  ( 0.1000000000000001400, 0.0000000000000000000, 1.080000000000000100 ) ) ;
#64 = CARTESIAN_POINT ( 'NONE',  ( 0.1000000000000001400, 1.420590287010929800E-016, -1.160000000000000100 ) ) ;
#65 = AXIS2_PLACEMENT_3D ( 'NONE', #67, #66, #72 ) ;
#66 = DIRECTION ( 'NONE',  ( -0.0000000000000000000, 1.000000000000000000, 1.224646799147353200E-016 ) ) ;
#67 = CARTESIAN_POINT ( 'NONE',  ( 0.1000000000000001400, 1.371604415045035500E-016, -1.120000000000000100 ) ) ;
#68 = CIRCLE ( 'NONE', #65, 0.03999999999999998000 ) ;
#69 = AXIS2_PLACEMENT_3D ( 'NONE', #62, #61, #60 ) ;
#70 = CIRCLE ( 'NONE', #69, 1.160000000000000100 ) ;
#71 = CIRCLE ( 'NONE', #47, 1.080000000000000100 ) ;
#72 = DIRECTION ( 'NONE',  ( 0.0000000000000000000, -1.224646799147351000E-016, 1.000000000000000000 ) ) ;
#73 = TOROIDAL_SURFACE ( 'NONE', #51, 1.120000000000000100, 0.03999999999999997300 ) ;
#74 = FACE_OUTER_BOUND ( 'NONE', #17, .T. ) ;
#75 = TOROIDAL_SURFACE ( 'NONE', #102, 1.120000000000000100, 0.03999999999999997300 ) ;
#76 = FACE_OUTER_BOUND ( 'NONE', #7, .T. ) ;
#77 = DIRECTION ( 'NONE',  ( 0.0000000000000000000, 0.0000000000000000000, 1.000000000000000000 ) ) ;
#78 = DIRECTION ( 'NONE',  ( -1.000000000000000000, -0.0000000000000000000, -0.0000000000000000000 ) ) ;
#79 = AXIS2_PLACEMENT_3D ( 'NONE', #81, #78, #77 ) ;
#80 = DIRECTION ( 'NONE',  ( 0.0000000000000000000, -1.000000000000000000, 0.0000000000000000000 ) ) ;
#81 = CARTESIAN_POINT ( 'NONE',  ( 0.1000000000000001400, 0.0000000000000000000, 0.0000000000000000000 ) ) ;
#82 = TOROIDAL_SURFACE ( 'NONE', #79, 1.120000000000000100, 0.03999999999999997300 ) ;
#83 = DIRECTION ( 'NONE',  ( 0.0000000000000000000, 0.0000000000000000000, 1.000000000000000000 ) ) ;
#84 = DIRECTION ( 'NONE',  ( -1.000000000000000000, -0.0000000000000000000, -0.0000000000000000000 ) ) ;
#85 = AXIS2_PLACEMENT_3D ( 'NONE', #100, #97, #88 ) ;
#86 = CARTESIAN_POINT ( 'NONE',  ( 0.1000000000000001400, 0.0000000000000000000, 1.120000000000000100 ) ) ;
#87 = CIRCLE ( 'NONE', #92, 1.080000000000000100 ) ;
#88 = DIRECTION ( 'NONE',  ( 0.0000000000000000000, 0.0000000000000000000, 1.000000000000000000 ) ) ;
#89 = DIRECTION ( 'NONE',  ( 0.0000000000000000000, -1.000000000000000000, 0.0000000000000000000 ) ) ;
#90 = DIRECTION ( 'NONE',  ( 0.0000000000000000000, 0.0000000000000000000, 1.000000000000000000 ) ) ;
#91 = DIRECTION ( 'NONE',  ( -1.000000000000000000, -0.0000000000000000000, -0.0000000000000000000 ) ) ;
#92 = AXIS2_PLACEMENT_3D ( 'NONE', #106, #91, #90 ) ;
#93 = CARTESIAN_POINT ( 'NONE',  ( 0.1000000000000001400, 0.0000000000000000000, 1.120000000000000100 ) ) ;
#94 = AXIS2_PLACEMENT_3D ( 'NONE', #93, #80, #103 ) ;
#95 = CIRCLE ( 'NONE', #94, 0.03999999999999998000 ) ;
#96 = FACE_OUTER_BOUND ( 'NONE', #24, .T. ) ;
#97 = DIRECTION ( 'NONE',  ( -1.000000000000000000, -0.0000000000000000000, -0.0000000000000000000 ) ) ;
#98 = AXIS2_PLACEMENT_3D ( 'NONE', #86, #89, #104 ) ;
#99 = CIRCLE ( 'NONE', #98, 0.03999999999999998000 ) ;
#100 = CARTESIAN_POINT ( 'NONE',  ( 0.1000000000000001400, 0.0000000000000000000, 0.0000000000000000000 ) ) ;
#101 = CARTESIAN_POINT ( 'NONE',  ( 0.1000000000000001400, 0.0000000000000000000, 0.0000000000000000000 ) ) ;
#102 = AXIS2_PLACEMENT_3D ( 'NONE', #101, #84, #83 ) ;
#103 = DIRECTION ( 'NONE',  ( 0.0000000000000000000, 0.0000000000000000000, -1.000000000000000000 ) ) ;
#104 = DIRECTION ( 'NONE',  ( 0.0000000000000000000, 0.0000000000000000000, -1.000000000000000000 ) ) ;
#105 = CIRCLE ( 'NONE', #85, 1.160000000000000100 ) ;
#106 = CARTESIAN_POINT ( 'NONE',  ( 0.1000000000000001400, 0.0000000000000000000, 0.0000000000000000000 ) ) ;
#107 = AXIS2_PLACEMENT_3D ( 'NONE', #55, #57, #56 ) ;
#108 = CIRCLE ( 'NONE', #107, 0.03999999999999998000 ) ;
#109 =( CONVERSION_BASED_UNIT ( 'INCH', #144 ) LENGTH_UNIT ( ) NAMED_UNIT ( #195 ) );
#110 = CC_DESIGN_DATE_AND_TIME_ASSIGNMENT ( #112, #111, ( #130 ) ) ;
#111 = DATE_TIME_ROLE ( 'creation_date' ) ;
#112 = DATE_AND_TIME ( #113, #114 ) ;
#113 = CALENDAR_DATE ( 2006, 3, 3 ) ;
#114 = LOCAL_TIME ( 13, 36, 28.00000000000000000, #115 ) ;
#115 = COORDINATED_UNIVERSAL_TIME_OFFSET ( 5, 30, .AHEAD. ) ;
#116 = CC_DESIGN_PERSON_AND_ORGANIZATION_ASSIGNMENT ( #118, #117, ( #130 ) ) ;
#117 = PERSON_AND_ORGANIZATION_ROLE ( 'creator' ) ;
#118 = PERSON_AND_ORGANIZATION ( #188, #187 ) ;
#119 = CC_DESIGN_APPROVAL ( #127, ( #130 ) ) ;
#120 = APPROVAL_DATE_TIME ( #121, #127 ) ;
#121 = DATE_AND_TIME ( #122, #123 ) ;
#122 = CALENDAR_DATE ( 2006, 3, 3 ) ;
#123 = LOCAL_TIME ( 13, 36, 28.00000000000000000, #124 ) ;
#124 = COORDINATED_UNIVERSAL_TIME_OFFSET ( 5, 30, .AHEAD. ) ;
#125 = APPROVAL_PERSON_ORGANIZATION ( #129, #127, #126 ) ;
#126 = APPROVAL_ROLE ( '' ) ;
#127 = APPROVAL ( #128, 'UNSPECIFIED' ) ;
#128 = APPROVAL_STATUS ( 'not_yet_approved' ) ;
#129 = PERSON_AND_ORGANIZATION ( #188, #187 ) ;
#130 = PRODUCT_DEFINITION ( 'UNKNOWN', '', #186, #131 ) ;
#131 = DESIGN_CONTEXT ( 'detailed design', #133, 'design' ) ;
#132 = APPLICATION_PROTOCOL_DEFINITION ( 'international standard', 'config_control_design', 1994, #133 ) ;
#133 = APPLICATION_CONTEXT ( 'configuration controlled 3d designs of mechanical parts and assemblies' ) ;
#134 = CC_DESIGN_PERSON_AND_ORGANIZATION_ASSIGNMENT ( #136, #135, ( #189 ) ) ;
#135 = PERSON_AND_ORGANIZATION_ROLE ( 'design_owner' ) ;
#136 = PERSON_AND_ORGANIZATION ( #188, #187 ) ;
#137 =( NAMED_UNIT ( * ) PLANE_ANGLE_UNIT ( ) SI_UNIT ( $, .RADIAN. ) );
#138 = APPLICATION_CONTEXT ( 'configuration controlled 3d designs of mechanical parts and assemblies' ) ;
#139 = DIRECTION ( 'NONE',  ( 1.000000000000000000, 0.0000000000000000000, 0.0000000000000000000 ) ) ;
#140 = CARTESIAN_POINT ( 'NONE',  ( 0.0000000000000000000, 0.0000000000000000000, 0.0000000000000000000 ) ) ;
#141 = ADVANCED_BREP_SHAPE_REPRESENTATION ( 'OM-63-SI', ( #5, #192 ), #142 ) ;
#142 =( GEOMETRIC_REPRESENTATION_CONTEXT ( 3 ) GLOBAL_UNCERTAINTY_ASSIGNED_CONTEXT ( ( #194 ) ) GLOBAL_UNIT_ASSIGNED_CONTEXT ( ( #109, #137, #196 ) ) REPRESENTATION_CONTEXT ( 'NONE', 'WORKASPACE' ) );
#143 =( LENGTH_UNIT ( ) NAMED_UNIT ( * ) SI_UNIT ( $, .METRE. ) );
#144 = LENGTH_MEASURE_WITH_UNIT ( LENGTH_MEASURE( 0.02539999999999999900 ), #143 );
#145 = PRODUCT_RELATED_PRODUCT_CATEGORY ( 'detail', '', ( #189 ) ) ;
#146 = CC_DESIGN_SECURITY_CLASSIFICATION ( #167, ( #186 ) ) ;
#147 = CC_DESIGN_APPROVAL ( #155, ( #167 ) ) ;
#148 = APPROVAL_DATE_TIME ( #149, #155 ) ;
#149 = DATE_AND_TIME ( #150, #151 ) ;
#150 = CALENDAR_DATE ( 2006, 3, 3 ) ;
#151 = LOCAL_TIME ( 13, 36, 28.00000000000000000, #152 ) ;
#152 = COORDINATED_UNIVERSAL_TIME_OFFSET ( 5, 30, .AHEAD. ) ;
#153 = APPROVAL_PERSON_ORGANIZATION ( #157, #155, #154 ) ;
#154 = APPROVAL_ROLE ( '' ) ;
#155 = APPROVAL ( #156, 'UNSPECIFIED' ) ;
#156 = APPROVAL_STATUS ( 'not_yet_approved' ) ;
#157 = PERSON_AND_ORGANIZATION ( #188, #187 ) ;
#158 = CC_DESIGN_DATE_AND_TIME_ASSIGNMENT ( #160, #159, ( #167 ) ) ;
#159 = DATE_TIME_ROLE ( 'classification_date' ) ;
#160 = DATE_AND_TIME ( #161, #162 ) ;
#161 = CALENDAR_DATE ( 2006, 3, 3 ) ;
#162 = LOCAL_TIME ( 13, 36, 28.00000000000000000, #163 ) ;
#163 = COORDINATED_UNIVERSAL_TIME_OFFSET ( 5, 30, .AHEAD. ) ;
#164 = CC_DESIGN_PERSON_AND_ORGANIZATION_ASSIGNMENT ( #166, #165, ( #167 ) ) ;
#165 = PERSON_AND_ORGANIZATION_ROLE ( 'classification_officer' ) ;
#166 = PERSON_AND_ORGANIZATION ( #188, #187 ) ;
#167 = SECURITY_CLASSIFICATION ( '', '', #168 ) ;
#168 = SECURITY_CLASSIFICATION_LEVEL ( 'unclassified' ) ;
#169 = CC_DESIGN_PERSON_AND_ORGANIZATION_ASSIGNMENT ( #171, #170, ( #186 ) ) ;
#170 = PERSON_AND_ORGANIZATION_ROLE ( 'design_supplier' ) ;
#171 = PERSON_AND_ORGANIZATION ( #188, #187 ) ;
#172 = CC_DESIGN_PERSON_AND_ORGANIZATION_ASSIGNMENT ( #174, #173, ( #186 ) ) ;
#173 = PERSON_AND_ORGANIZATION_ROLE ( 'creator' ) ;
#174 = PERSON_AND_ORGANIZATION ( #188, #187 ) ;
#175 = CC_DESIGN_APPROVAL ( #183, ( #186 ) ) ;
#176 = APPROVAL_DATE_TIME ( #177, #183 ) ;
#177 = DATE_AND_TIME ( #178, #179 ) ;
#178 = CALENDAR_DATE ( 2006, 3, 3 ) ;
#179 = LOCAL_TIME ( 13, 36, 28.00000000000000000, #180 ) ;
#180 = COORDINATED_UNIVERSAL_TIME_OFFSET ( 5, 30, .AHEAD. ) ;
#181 = APPROVAL_PERSON_ORGANIZATION ( #185, #183, #182 ) ;
#182 = APPROVAL_ROLE ( '' ) ;
#183 = APPROVAL ( #184, 'UNSPECIFIED' ) ;
#184 = APPROVAL_STATUS ( 'not_yet_approved' ) ;
#185 = PERSON_AND_ORGANIZATION ( #188, #187 ) ;
#186 = PRODUCT_DEFINITION_FORMATION_WITH_SPECIFIED_SOURCE ( 'ANY', '', #189, .NOT_KNOWN. ) ;
#187 = ORGANIZATION ( 'UNSPECIFIED', 'UNSPECIFIED', '' ) ;
#188 = PERSON ( 'UNSPECIFIED', 'UNSPECIFIED', 'UNSPECIFIED', ('UNSPECIFIED'), ('UNSPECIFIED'), ('UNSPECIFIED') ) ;
#189 = PRODUCT ( 'OM-63-SI', 'OM-63-SI', '', ( #190 ) ) ;
#190 = MECHANICAL_CONTEXT ( 'NONE', #138, 'mechanical' ) ;
#191 = APPLICATION_PROTOCOL_DEFINITION ( 'international standard', 'config_control_design', 1994, #138 ) ;
#192 = AXIS2_PLACEMENT_3D ( 'NONE', #140, #193, #139 ) ;
#193 = DIRECTION ( 'NONE',  ( 0.0000000000000000000, 0.0000000000000000000, 1.000000000000000000 ) ) ;
#194 = UNCERTAINTY_MEASURE_WITH_UNIT (LENGTH_MEASURE( 1.000000000000000100E-005 ), #109, 'distance_accuracy_value', 'NONE');
#195 = DIMENSIONAL_EXPONENTS ( 1.000000000000000000, 0.0000000000000000000, 0.0000000000000000000, 0.0000000000000000000, 0.0000000000000000000, 0.0000000000000000000, 0.0000000000000000000 ) ;
#196 =( NAMED_UNIT ( * ) SI_UNIT ( $, .STERADIAN. ) SOLID_ANGLE_UNIT ( ) );
ENDSEC;
END-ISO-10303-21;
