ISO-10303-21;
HEADER;
FILE_DESCRIPTION (( 'STEP AP203' ),
    '1' );
FILE_NAME ('OR-07-BN.STEP',
    '2008-03-29T09:25:59',
    ( 'Baystate-05' ),
    ( 'BayState InfoTech' ),
    'SwSTEP 2.0',
    'SolidWorks 2007',
    '' );
FILE_SCHEMA (( 'CONFIG_CONTROL_DESIGN' ));
ENDSEC;

DATA;
#1 = DIRECTION ( 'NONE',  ( -1.000000000000000000, 0.0000000000000000000, 0.0000000000000000000 ) ) ;
#2 = TOROIDAL_SURFACE ( 'NONE', #31, 0.2249999999999999200, 0.03000000000000000900 ) ;
#3 = FACE_OUTER_BOUND ( 'NONE', #159, .T. ) ;
#4 = DIRECTION ( 'NONE',  ( 0.0000000000000000000, 0.0000000000000000000, 1.000000000000000000 ) ) ;
#5 = AXIS2_PLACEMENT_3D ( 'NONE', #15, #14, #13 ) ;
#6 = CIRCLE ( 'NONE', #5, 0.03000000000000002300 ) ;
#7 = FACE_OUTER_BOUND ( 'NONE', #167, .T. ) ;
#8 = DIRECTION ( 'NONE',  ( 0.0000000000000000000, -1.000000000000000000, 0.0000000000000000000 ) ) ;
#9 = CARTESIAN_POINT ( 'NONE',  ( 0.1000000000000000500, 0.0000000000000000000, 0.2249999999999999200 ) ) ;
#10 = AXIS2_PLACEMENT_3D ( 'NONE', #9, #8, #30 ) ;
#11 = CIRCLE ( 'NONE', #10, 0.03000000000000002300 ) ;
#12 = CARTESIAN_POINT ( 'NONE',  ( 0.1000000000000000500, 0.0000000000000000000, 0.0000000000000000000 ) ) ;
#13 = DIRECTION ( 'NONE',  ( 0.0000000000000000000, -1.224646799147353500E-016, 1.000000000000000000 ) ) ;
#14 = DIRECTION ( 'NONE',  ( 0.0000000000000000000, 1.000000000000000000, 1.224646799147353200E-016 ) ) ;
#15 = CARTESIAN_POINT ( 'NONE',  ( 0.1000000000000000500, 2.755455298081543900E-017, -0.2249999999999999200 ) ) ;
#16 = AXIS2_PLACEMENT_3D ( 'NONE', #49, #120, #50 ) ;
#17 = CIRCLE ( 'NONE', #16, 0.2549999999999999500 ) ;
#18 = APPROVAL_STATUS ( 'not_yet_approved' ) ;
#19 = DIRECTION ( 'NONE',  ( 0.0000000000000000000, 0.0000000000000000000, 1.000000000000000000 ) ) ;
#20 = DIRECTION ( 'NONE',  ( -1.000000000000000000, 0.0000000000000000000, 0.0000000000000000000 ) ) ;
#21 = CARTESIAN_POINT ( 'NONE',  ( 0.1000000000000000500, 0.0000000000000000000, 0.0000000000000000000 ) ) ;
#22 = AXIS2_PLACEMENT_3D ( 'NONE', #21, #20, #19 ) ;
#23 = CIRCLE ( 'NONE', #22, 0.2549999999999999500 ) ;
#24 = DIRECTION ( 'NONE',  ( 0.0000000000000000000, 0.0000000000000000000, 1.000000000000000000 ) ) ;
#25 = DIRECTION ( 'NONE',  ( -1.000000000000000000, 0.0000000000000000000, 0.0000000000000000000 ) ) ;
#26 = CARTESIAN_POINT ( 'NONE',  ( 0.1000000000000000500, 0.0000000000000000000, 0.0000000000000000000 ) ) ;
#27 = AXIS2_PLACEMENT_3D ( 'NONE', #26, #25, #24 ) ;
#28 = TOROIDAL_SURFACE ( 'NONE', #27, 0.2249999999999999200, 0.03000000000000000900 ) ;
#29 = CARTESIAN_POINT ( 'NONE',  ( 0.1000000000000000500, 2.388061258337337500E-017, -0.1949999999999999000 ) ) ;
#30 = DIRECTION ( 'NONE',  ( 0.0000000000000000000, 0.0000000000000000000, -1.000000000000000000 ) ) ;
#31 = AXIS2_PLACEMENT_3D ( 'NONE', #12, #1, #4 ) ;
#32 = DATE_AND_TIME ( #33, #34 ) ;
#33 = CALENDAR_DATE ( 2008, 29, 3 ) ;
#34 = LOCAL_TIME ( 14, 55, 59.00000000000000000, #35 ) ;
#35 = COORDINATED_UNIVERSAL_TIME_OFFSET ( 5, 30, .AHEAD. ) ;
#36 = APPROVAL_PERSON_ORGANIZATION ( #40, #38, #37 ) ;
#37 = APPROVAL_ROLE ( '' ) ;
#38 = APPROVAL ( #39, 'UNSPECIFIED' ) ;
#39 = APPROVAL_STATUS ( 'not_yet_approved' ) ;
#40 = PERSON_AND_ORGANIZATION ( #92, #86 ) ;
#41 = PRODUCT_DEFINITION ( 'UNKNOWN', '', #59, #42 ) ;
#42 = DESIGN_CONTEXT ( 'detailed design', #78, 'design' ) ;
#43 = TOROIDAL_SURFACE ( 'NONE', #91, 0.2249999999999999200, 0.03000000000000000900 ) ;
#44 =( NAMED_UNIT ( * ) SI_UNIT ( $, .STERADIAN. ) SOLID_ANGLE_UNIT ( ) );
#45 = DIRECTION ( 'NONE',  ( 0.0000000000000000000, 0.0000000000000000000, 1.000000000000000000 ) ) ;
#46 = LENGTH_MEASURE_WITH_UNIT ( LENGTH_MEASURE( 0.02539999999999999900 ), #84 );
#47 = DIMENSIONAL_EXPONENTS ( 1.000000000000000000, 0.0000000000000000000, 0.0000000000000000000, 0.0000000000000000000, 0.0000000000000000000, 0.0000000000000000000, 0.0000000000000000000 ) ;
#48 = AXIS2_PLACEMENT_3D ( 'NONE', #112, #85, #113 ) ;
#49 = CARTESIAN_POINT ( 'NONE',  ( 0.1000000000000000500, 0.0000000000000000000, 0.0000000000000000000 ) ) ;
#50 = DIRECTION ( 'NONE',  ( 0.0000000000000000000, 0.0000000000000000000, 1.000000000000000000 ) ) ;
#51 = AXIS2_PLACEMENT_3D ( 'NONE', #121, #83, #90 ) ;
#52 =( NAMED_UNIT ( * ) PLANE_ANGLE_UNIT ( ) SI_UNIT ( $, .RADIAN. ) );
#53 = DATE_AND_TIME ( #109, #110 ) ;
#54 = APPROVAL_PERSON_ORGANIZATION ( #58, #56, #55 ) ;
#55 = APPROVAL_ROLE ( '' ) ;
#56 = APPROVAL ( #57, 'UNSPECIFIED' ) ;
#57 = APPROVAL_STATUS ( 'not_yet_approved' ) ;
#58 = PERSON_AND_ORGANIZATION ( #92, #86 ) ;
#59 = PRODUCT_DEFINITION_FORMATION_WITH_SPECIFIED_SOURCE ( 'ANY', '', #115, .NOT_KNOWN. ) ;
#60 = CC_DESIGN_DATE_AND_TIME_ASSIGNMENT ( #62, #61, ( #41 ) ) ;
#61 = DATE_TIME_ROLE ( 'creation_date' ) ;
#62 = DATE_AND_TIME ( #63, #64 ) ;
#63 = CALENDAR_DATE ( 2008, 29, 3 ) ;
#64 = LOCAL_TIME ( 14, 55, 59.00000000000000000, #65 ) ;
#65 = COORDINATED_UNIVERSAL_TIME_OFFSET ( 5, 30, .AHEAD. ) ;
#66 = FACE_OUTER_BOUND ( 'NONE', #179, .T. ) ;
#67 = PERSON_AND_ORGANIZATION ( #92, #86 ) ;
#68 = CC_DESIGN_DATE_AND_TIME_ASSIGNMENT ( #70, #69, ( #76 ) ) ;
#69 = DATE_TIME_ROLE ( 'classification_date' ) ;
#70 = DATE_AND_TIME ( #71, #72 ) ;
#71 = CALENDAR_DATE ( 2008, 29, 3 ) ;
#72 = LOCAL_TIME ( 14, 55, 59.00000000000000000, #73 ) ;
#73 = COORDINATED_UNIVERSAL_TIME_OFFSET ( 5, 30, .AHEAD. ) ;
#74 = CC_DESIGN_PERSON_AND_ORGANIZATION_ASSIGNMENT ( #99, #75, ( #76 ) ) ;
#75 = PERSON_AND_ORGANIZATION_ROLE ( 'classification_officer' ) ;
#76 = SECURITY_CLASSIFICATION ( '', '', #100 ) ;
#77 = APPLICATION_PROTOCOL_DEFINITION ( 'international standard', 'config_control_design', 1994, #78 ) ;
#78 = APPLICATION_CONTEXT ( 'configuration controlled 3d designs of mechanical parts and assemblies' ) ;
#79 = CC_DESIGN_PERSON_AND_ORGANIZATION_ASSIGNMENT ( #81, #80, ( #115 ) ) ;
#80 = PERSON_AND_ORGANIZATION_ROLE ( 'design_owner' ) ;
#81 = PERSON_AND_ORGANIZATION ( #92, #86 ) ;
#82 = DIRECTION ( 'NONE',  ( -1.000000000000000000, 0.0000000000000000000, 0.0000000000000000000 ) ) ;
#83 = DIRECTION ( 'NONE',  ( 0.0000000000000000000, 1.000000000000000000, 1.224646799147353200E-016 ) ) ;
#84 =( LENGTH_UNIT ( ) NAMED_UNIT ( * ) SI_UNIT ( $, .METRE. ) );
#85 = DIRECTION ( 'NONE',  ( 0.0000000000000000000, 0.0000000000000000000, 1.000000000000000000 ) ) ;
#86 = ORGANIZATION ( 'UNSPECIFIED', 'UNSPECIFIED', '' ) ;
#87 = ADVANCED_BREP_SHAPE_REPRESENTATION ( 'OR-07-BN', ( #177, #48 ), #88 ) ;
#88 =( GEOMETRIC_REPRESENTATION_CONTEXT ( 3 ) GLOBAL_UNCERTAINTY_ASSIGNED_CONTEXT ( ( #114 ) ) GLOBAL_UNIT_ASSIGNED_CONTEXT ( ( #119, #52, #44 ) ) REPRESENTATION_CONTEXT ( 'NONE', 'WORKASPACE' ) );
#89 = CARTESIAN_POINT ( 'NONE',  ( 0.1000000000000000500, 3.122849337825749900E-017, -0.2549999999999999500 ) ) ;
#90 = DIRECTION ( 'NONE',  ( 0.0000000000000000000, -1.224646799147353500E-016, 1.000000000000000000 ) ) ;
#91 = AXIS2_PLACEMENT_3D ( 'NONE', #122, #82, #45 ) ;
#92 = PERSON ( 'UNSPECIFIED', 'UNSPECIFIED', 'UNSPECIFIED', ('UNSPECIFIED'), ('UNSPECIFIED'), ('UNSPECIFIED') ) ;
#93 = CIRCLE ( 'NONE', #51, 0.03000000000000002300 ) ;
#94 = CC_DESIGN_PERSON_AND_ORGANIZATION_ASSIGNMENT ( #96, #95, ( #41 ) ) ;
#95 = PERSON_AND_ORGANIZATION_ROLE ( 'creator' ) ;
#96 = PERSON_AND_ORGANIZATION ( #92, #86 ) ;
#97 = CC_DESIGN_APPROVAL ( #38, ( #41 ) ) ;
#98 = APPROVAL_DATE_TIME ( #32, #38 ) ;
#99 = PERSON_AND_ORGANIZATION ( #92, #86 ) ;
#100 = SECURITY_CLASSIFICATION_LEVEL ( 'unclassified' ) ;
#101 = CC_DESIGN_PERSON_AND_ORGANIZATION_ASSIGNMENT ( #103, #102, ( #59 ) ) ;
#102 = PERSON_AND_ORGANIZATION_ROLE ( 'design_supplier' ) ;
#103 = PERSON_AND_ORGANIZATION ( #92, #86 ) ;
#104 = CC_DESIGN_PERSON_AND_ORGANIZATION_ASSIGNMENT ( #106, #105, ( #59 ) ) ;
#105 = PERSON_AND_ORGANIZATION_ROLE ( 'creator' ) ;
#106 = PERSON_AND_ORGANIZATION ( #92, #86 ) ;
#107 = CC_DESIGN_APPROVAL ( #56, ( #59 ) ) ;
#108 = APPROVAL_DATE_TIME ( #53, #56 ) ;
#109 = CALENDAR_DATE ( 2008, 29, 3 ) ;
#110 = LOCAL_TIME ( 14, 55, 59.00000000000000000, #111 ) ;
#111 = COORDINATED_UNIVERSAL_TIME_OFFSET ( 5, 30, .AHEAD. ) ;
#112 = CARTESIAN_POINT ( 'NONE',  ( 0.0000000000000000000, 0.0000000000000000000, 0.0000000000000000000 ) ) ;
#113 = DIRECTION ( 'NONE',  ( 1.000000000000000000, 0.0000000000000000000, 0.0000000000000000000 ) ) ;
#114 = UNCERTAINTY_MEASURE_WITH_UNIT (LENGTH_MEASURE( 1.000000000000000100E-005 ), #119, 'distance_accuracy_value', 'NONE');
#115 = PRODUCT ( 'OR-07-BN', 'OR-07-BN', '', ( #116 ) ) ;
#116 = MECHANICAL_CONTEXT ( 'NONE', #118, 'mechanical' ) ;
#117 = APPLICATION_PROTOCOL_DEFINITION ( 'international standard', 'config_control_design', 1994, #118 ) ;
#118 = APPLICATION_CONTEXT ( 'configuration controlled 3d designs of mechanical parts and assemblies' ) ;
#119 =( CONVERSION_BASED_UNIT ( 'INCH', #46 ) LENGTH_UNIT ( ) NAMED_UNIT ( #47 ) );
#120 = DIRECTION ( 'NONE',  ( -1.000000000000000000, 0.0000000000000000000, 0.0000000000000000000 ) ) ;
#121 = CARTESIAN_POINT ( 'NONE',  ( 0.1000000000000000500, 2.755455298081543900E-017, -0.2249999999999999200 ) ) ;
#122 = CARTESIAN_POINT ( 'NONE',  ( 0.1000000000000000500, 0.0000000000000000000, 0.0000000000000000000 ) ) ;
#123 = DATE_AND_TIME ( #132, #134 ) ;
#124 = APPROVAL ( #18, 'UNSPECIFIED' ) ;
#125 = COORDINATED_UNIVERSAL_TIME_OFFSET ( 5, 30, .AHEAD. ) ;
#126 = SHAPE_DEFINITION_REPRESENTATION ( #127, #87 ) ;
#127 = PRODUCT_DEFINITION_SHAPE ( 'NONE', 'NONE',  #41 ) ;
#128 = PRODUCT_RELATED_PRODUCT_CATEGORY ( 'detail', '', ( #115 ) ) ;
#129 = CC_DESIGN_SECURITY_CLASSIFICATION ( #76, ( #59 ) ) ;
#130 = APPROVAL_DATE_TIME ( #123, #124 ) ;
#131 = CC_DESIGN_APPROVAL ( #124, ( #76 ) ) ;
#132 = CALENDAR_DATE ( 2008, 29, 3 ) ;
#133 = APPROVAL_ROLE ( '' ) ;
#134 = LOCAL_TIME ( 14, 55, 59.00000000000000000, #125 ) ;
#135 = APPROVAL_PERSON_ORGANIZATION ( #67, #124, #133 ) ;
#136 = DIRECTION ( 'NONE',  ( 0.0000000000000000000, 0.0000000000000000000, 1.000000000000000000 ) ) ;
#137 = DIRECTION ( 'NONE',  ( -1.000000000000000000, 0.0000000000000000000, 0.0000000000000000000 ) ) ;
#138 = CARTESIAN_POINT ( 'NONE',  ( 0.1000000000000000500, 0.0000000000000000000, 0.0000000000000000000 ) ) ;
#139 = AXIS2_PLACEMENT_3D ( 'NONE', #138, #137, #136 ) ;
#140 = CIRCLE ( 'NONE', #139, 0.1949999999999999000 ) ;
#141 = DIRECTION ( 'NONE',  ( 0.0000000000000000000, 0.0000000000000000000, 1.000000000000000000 ) ) ;
#142 = DIRECTION ( 'NONE',  ( -1.000000000000000000, 0.0000000000000000000, 0.0000000000000000000 ) ) ;
#143 = AXIS2_PLACEMENT_3D ( 'NONE', #183, #142, #141 ) ;
#144 = TOROIDAL_SURFACE ( 'NONE', #143, 0.2249999999999999200, 0.03000000000000000900 ) ;
#145 = VERTEX_POINT ( 'NONE', #196 ) ;
#146 = ORIENTED_EDGE ( 'NONE', *, *, #147, .T. ) ;
#147 = EDGE_CURVE ( 'NONE', #145, #148, #195, .T. ) ;
#148 = VERTEX_POINT ( 'NONE', #190 ) ;
#149 = ORIENTED_EDGE ( 'NONE', *, *, #150, .F. ) ;
#150 = EDGE_CURVE ( 'NONE', #173, #148, #189, .T. ) ;
#151 = ADVANCED_FACE ( 'NONE', ( #184 ), #144, .T. ) ;
#152 = EDGE_LOOP ( 'NONE', ( #153, #154, #155, #156 ) ) ;
#153 = ORIENTED_EDGE ( 'NONE', *, *, #147, .F. ) ;
#154 = ORIENTED_EDGE ( 'NONE', *, *, #176, .T. ) ;
#155 = ORIENTED_EDGE ( 'NONE', *, *, #181, .T. ) ;
#156 = ORIENTED_EDGE ( 'NONE', *, *, #157, .F. ) ;
#157 = EDGE_CURVE ( 'NONE', #148, #173, #140, .T. ) ;
#158 = ADVANCED_FACE ( 'NONE', ( #3 ), #2, .T. ) ;
#159 = EDGE_LOOP ( 'NONE', ( #160, #161, #163, #164 ) ) ;
#160 = ORIENTED_EDGE ( 'NONE', *, *, #176, .F. ) ;
#161 = ORIENTED_EDGE ( 'NONE', *, *, #162, .F. ) ;
#162 = EDGE_CURVE ( 'NONE', #148, #145, #11, .T. ) ;
#163 = ORIENTED_EDGE ( 'NONE', *, *, #157, .T. ) ;
#164 = ORIENTED_EDGE ( 'NONE', *, *, #165, .T. ) ;
#165 = EDGE_CURVE ( 'NONE', #173, #182, #6, .T. ) ;
#166 = ADVANCED_FACE ( 'NONE', ( #7 ), #28, .T. ) ;
#167 = EDGE_LOOP ( 'NONE', ( #168, #169, #170, #171 ) ) ;
#168 = ORIENTED_EDGE ( 'NONE', *, *, #175, .F. ) ;
#169 = ORIENTED_EDGE ( 'NONE', *, *, #165, .F. ) ;
#170 = ORIENTED_EDGE ( 'NONE', *, *, #150, .T. ) ;
#171 = ORIENTED_EDGE ( 'NONE', *, *, #162, .T. ) ;
#172 = CLOSED_SHELL ( 'NONE', ( #178, #151, #158, #166 ) ) ;
#173 = VERTEX_POINT ( 'NONE', #29 ) ;
#174 = ORIENTED_EDGE ( 'NONE', *, *, #175, .T. ) ;
#175 = EDGE_CURVE ( 'NONE', #182, #145, #23, .T. ) ;
#176 = EDGE_CURVE ( 'NONE', #145, #182, #17, .T. ) ;
#177 = MANIFOLD_SOLID_BREP ( 'NONE', #172 ) ;
#178 = ADVANCED_FACE ( 'NONE', ( #66 ), #43, .T. ) ;
#179 = EDGE_LOOP ( 'NONE', ( #180, #174, #146, #149 ) ) ;
#180 = ORIENTED_EDGE ( 'NONE', *, *, #181, .F. ) ;
#181 = EDGE_CURVE ( 'NONE', #182, #173, #93, .T. ) ;
#182 = VERTEX_POINT ( 'NONE', #89 ) ;
#183 = CARTESIAN_POINT ( 'NONE',  ( 0.1000000000000000500, 0.0000000000000000000, 0.0000000000000000000 ) ) ;
#184 = FACE_OUTER_BOUND ( 'NONE', #152, .T. ) ;
#185 = DIRECTION ( 'NONE',  ( 0.0000000000000000000, 0.0000000000000000000, 1.000000000000000000 ) ) ;
#186 = DIRECTION ( 'NONE',  ( -1.000000000000000000, 0.0000000000000000000, 0.0000000000000000000 ) ) ;
#187 = CARTESIAN_POINT ( 'NONE',  ( 0.1000000000000000500, 0.0000000000000000000, 0.0000000000000000000 ) ) ;
#188 = AXIS2_PLACEMENT_3D ( 'NONE', #187, #186, #185 ) ;
#189 = CIRCLE ( 'NONE', #188, 0.1949999999999999000 ) ;
#190 = CARTESIAN_POINT ( 'NONE',  ( 0.1000000000000000500, 0.0000000000000000000, 0.1949999999999999000 ) ) ;
#191 = DIRECTION ( 'NONE',  ( 0.0000000000000000000, 0.0000000000000000000, -1.000000000000000000 ) ) ;
#192 = DIRECTION ( 'NONE',  ( 0.0000000000000000000, -1.000000000000000000, 0.0000000000000000000 ) ) ;
#193 = CARTESIAN_POINT ( 'NONE',  ( 0.1000000000000000500, 0.0000000000000000000, 0.2249999999999999200 ) ) ;
#194 = AXIS2_PLACEMENT_3D ( 'NONE', #193, #192, #191 ) ;
#195 = CIRCLE ( 'NONE', #194, 0.03000000000000002300 ) ;
#196 = CARTESIAN_POINT ( 'NONE',  ( 0.1000000000000000500, 0.0000000000000000000, 0.2549999999999999500 ) ) ;
ENDSEC;
END-ISO-10303-21;
