ISO-10303-21;
HEADER;
FILE_DESCRIPTION (( 'STEP AP203' ),
    '1' );
FILE_NAME ('OR-07-SI.STEP',
    '2006-03-03T07:10:13',
    ( 'bay06' ),
    ( '' ),
    'SwSTEP 2.0',
    'SolidWorks 2008',
    '' );
FILE_SCHEMA (( 'CONFIG_CONTROL_DESIGN' ));
ENDSEC;

DATA;
#1 = EDGE_CURVE ( 'NONE', #2, #3, #40, .T. ) ;
#2 = VERTEX_POINT ( 'NONE', #42 ) ;
#3 = VERTEX_POINT ( 'NONE', #39 ) ;
#4 = ORIENTED_EDGE ( 'NONE', *, *, #5, .F. ) ;
#5 = EDGE_CURVE ( 'NONE', #3, #2, #52, .T. ) ;
#6 = EDGE_LOOP ( 'NONE', ( #12, #13, #27, #23 ) ) ;
#7 = EDGE_LOOP ( 'NONE', ( #8, #20, #22, #17 ) ) ;
#8 = ORIENTED_EDGE ( 'NONE', *, *, #1, .F. ) ;
#9 = EDGE_CURVE ( 'NONE', #21, #2, #71, .T. ) ;
#10 = MANIFOLD_SOLID_BREP ( 'NONE', #34 ) ;
#11 = ADVANCED_FACE ( 'NONE', ( #72 ), #67, .T. ) ;
#12 = ORIENTED_EDGE ( 'NONE', *, *, #19, .F. ) ;
#13 = ORIENTED_EDGE ( 'NONE', *, *, #9, .T. ) ;
#14 = ADVANCED_FACE ( 'NONE', ( #68 ), #63, .T. ) ;
#15 = VERTEX_POINT ( 'NONE', #62 ) ;
#16 = EDGE_CURVE ( 'NONE', #3, #15, #57, .T. ) ;
#17 = ORIENTED_EDGE ( 'NONE', *, *, #16, .F. ) ;
#18 = EDGE_CURVE ( 'NONE', #2, #21, #145, .T. ) ;
#19 = EDGE_CURVE ( 'NONE', #21, #15, #139, .T. ) ;
#20 = ORIENTED_EDGE ( 'NONE', *, *, #18, .T. ) ;
#21 = VERTEX_POINT ( 'NONE', #165 ) ;
#22 = ORIENTED_EDGE ( 'NONE', *, *, #19, .T. ) ;
#23 = ORIENTED_EDGE ( 'NONE', *, *, #29, .F. ) ;
#24 = ORIENTED_EDGE ( 'NONE', *, *, #5, .T. ) ;
#25 = ORIENTED_EDGE ( 'NONE', *, *, #30, .T. ) ;
#26 = ORIENTED_EDGE ( 'NONE', *, *, #16, .T. ) ;
#27 = ORIENTED_EDGE ( 'NONE', *, *, #1, .T. ) ;
#28 = ORIENTED_EDGE ( 'NONE', *, *, #29, .T. ) ;
#29 = EDGE_CURVE ( 'NONE', #15, #3, #150, .T. ) ;
#30 = EDGE_CURVE ( 'NONE', #15, #21, #160, .T. ) ;
#31 = ORIENTED_EDGE ( 'NONE', *, *, #30, .F. ) ;
#32 = ORIENTED_EDGE ( 'NONE', *, *, #9, .F. ) ;
#33 = EDGE_LOOP ( 'NONE', ( #32, #31, #28, #24 ) ) ;
#34 = CLOSED_SHELL ( 'NONE', ( #11, #14, #38, #37 ) ) ;
#35 = ORIENTED_EDGE ( 'NONE', *, *, #18, .F. ) ;
#36 = EDGE_LOOP ( 'NONE', ( #35, #4, #26, #25 ) ) ;
#37 = ADVANCED_FACE ( 'NONE', ( #156 ), #155, .T. ) ;
#38 = ADVANCED_FACE ( 'NONE', ( #130 ), #126, .T. ) ;
#39 = CARTESIAN_POINT ( 'NONE',  ( 0.1000000000000000200, 2.388061258337338400E-017, -0.1949999999999999800 ) ) ;
#40 = CIRCLE ( 'NONE', #47, 0.03000000000000002300 ) ;
#41 = DIRECTION ( 'NONE',  ( 0.0000000000000000000, -1.224646799147353500E-016, 1.000000000000000000 ) ) ;
#42 = CARTESIAN_POINT ( 'NONE',  ( 0.1000000000000000200, 3.122849337825751200E-017, -0.2550000000000000000 ) ) ;
#43 = AXIS2_PLACEMENT_3D ( 'NONE', #46, #45, #44 ) ;
#44 = DIRECTION ( 'NONE',  ( 0.0000000000000000000, -1.224646799147353500E-016, 1.000000000000000000 ) ) ;
#45 = DIRECTION ( 'NONE',  ( -0.0000000000000000000, 1.000000000000000000, 1.224646799147353200E-016 ) ) ;
#46 = CARTESIAN_POINT ( 'NONE',  ( 0.1000000000000000200, 2.755455298081544500E-017, -0.2249999999999999800 ) ) ;
#47 = AXIS2_PLACEMENT_3D ( 'NONE', #73, #51, #41 ) ;
#48 = DIRECTION ( 'NONE',  ( 0.0000000000000000000, 0.0000000000000000000, 1.000000000000000000 ) ) ;
#49 = DIRECTION ( 'NONE',  ( -1.000000000000000000, -0.0000000000000000000, -0.0000000000000000000 ) ) ;
#50 = CARTESIAN_POINT ( 'NONE',  ( 0.1000000000000000200, 0.0000000000000000000, 0.0000000000000000000 ) ) ;
#51 = DIRECTION ( 'NONE',  ( -0.0000000000000000000, 1.000000000000000000, 1.224646799147353200E-016 ) ) ;
#52 = CIRCLE ( 'NONE', #43, 0.03000000000000002300 ) ;
#53 = DIRECTION ( 'NONE',  ( 0.0000000000000000000, 0.0000000000000000000, 1.000000000000000000 ) ) ;
#54 = DIRECTION ( 'NONE',  ( -1.000000000000000000, -0.0000000000000000000, -0.0000000000000000000 ) ) ;
#55 = CARTESIAN_POINT ( 'NONE',  ( 0.1000000000000000200, 0.0000000000000000000, 0.0000000000000000000 ) ) ;
#56 = AXIS2_PLACEMENT_3D ( 'NONE', #55, #54, #53 ) ;
#57 = CIRCLE ( 'NONE', #56, 0.1949999999999999800 ) ;
#58 = DIRECTION ( 'NONE',  ( 0.0000000000000000000, 0.0000000000000000000, 1.000000000000000000 ) ) ;
#59 = DIRECTION ( 'NONE',  ( -1.000000000000000000, -0.0000000000000000000, -0.0000000000000000000 ) ) ;
#60 = CARTESIAN_POINT ( 'NONE',  ( 0.1000000000000000200, 0.0000000000000000000, 0.0000000000000000000 ) ) ;
#61 = AXIS2_PLACEMENT_3D ( 'NONE', #60, #59, #58 ) ;
#62 = CARTESIAN_POINT ( 'NONE',  ( 0.1000000000000000200, 0.0000000000000000000, 0.1949999999999999800 ) ) ;
#63 = TOROIDAL_SURFACE ( 'NONE', #61, 0.2249999999999999800, 0.03000000000000000900 ) ;
#64 = DIRECTION ( 'NONE',  ( 0.0000000000000000000, 0.0000000000000000000, 1.000000000000000000 ) ) ;
#65 = DIRECTION ( 'NONE',  ( -1.000000000000000000, -0.0000000000000000000, -0.0000000000000000000 ) ) ;
#66 = AXIS2_PLACEMENT_3D ( 'NONE', #69, #65, #64 ) ;
#67 = TOROIDAL_SURFACE ( 'NONE', #66, 0.2249999999999999800, 0.03000000000000000900 ) ;
#68 = FACE_OUTER_BOUND ( 'NONE', #6, .T. ) ;
#69 = CARTESIAN_POINT ( 'NONE',  ( 0.1000000000000000200, 0.0000000000000000000, 0.0000000000000000000 ) ) ;
#70 = AXIS2_PLACEMENT_3D ( 'NONE', #50, #49, #48 ) ;
#71 = CIRCLE ( 'NONE', #70, 0.2550000000000000000 ) ;
#72 = FACE_OUTER_BOUND ( 'NONE', #7, .T. ) ;
#73 = CARTESIAN_POINT ( 'NONE',  ( 0.1000000000000000200, 2.755455298081544500E-017, -0.2249999999999999800 ) ) ;
#74 = PERSON_AND_ORGANIZATION_ROLE ( 'design_supplier' ) ;
#75 = PERSON_AND_ORGANIZATION ( #167, #166 ) ;
#76 = CC_DESIGN_PERSON_AND_ORGANIZATION_ASSIGNMENT ( #78, #77, ( #90 ) ) ;
#77 = PERSON_AND_ORGANIZATION_ROLE ( 'creator' ) ;
#78 = PERSON_AND_ORGANIZATION ( #167, #166 ) ;
#79 = CC_DESIGN_APPROVAL ( #87, ( #90 ) ) ;
#80 = APPROVAL_DATE_TIME ( #81, #87 ) ;
#81 = DATE_AND_TIME ( #82, #83 ) ;
#82 = CALENDAR_DATE ( 2006, 3, 3 ) ;
#83 = LOCAL_TIME ( 12, 40, 13.00000000000000000, #84 ) ;
#84 = COORDINATED_UNIVERSAL_TIME_OFFSET ( 5, 30, .AHEAD. ) ;
#85 = APPROVAL_PERSON_ORGANIZATION ( #89, #87, #86 ) ;
#86 = APPROVAL_ROLE ( '' ) ;
#87 = APPROVAL ( #88, 'UNSPECIFIED' ) ;
#88 = APPROVAL_STATUS ( 'not_yet_approved' ) ;
#89 = PERSON_AND_ORGANIZATION ( #167, #166 ) ;
#90 = PRODUCT_DEFINITION_FORMATION_WITH_SPECIFIED_SOURCE ( 'ANY', '', #168, .NOT_KNOWN. ) ;
#91 = CC_DESIGN_DATE_AND_TIME_ASSIGNMENT ( #93, #92, ( #111 ) ) ;
#92 = DATE_TIME_ROLE ( 'creation_date' ) ;
#93 = DATE_AND_TIME ( #94, #95 ) ;
#94 = CALENDAR_DATE ( 2006, 3, 3 ) ;
#95 = LOCAL_TIME ( 12, 40, 13.00000000000000000, #96 ) ;
#96 = COORDINATED_UNIVERSAL_TIME_OFFSET ( 5, 30, .AHEAD. ) ;
#97 = CC_DESIGN_PERSON_AND_ORGANIZATION_ASSIGNMENT ( #99, #98, ( #111 ) ) ;
#98 = PERSON_AND_ORGANIZATION_ROLE ( 'creator' ) ;
#99 = PERSON_AND_ORGANIZATION ( #167, #166 ) ;
#100 = CC_DESIGN_APPROVAL ( #108, ( #111 ) ) ;
#101 = APPROVAL_DATE_TIME ( #102, #108 ) ;
#102 = DATE_AND_TIME ( #103, #104 ) ;
#103 = CALENDAR_DATE ( 2006, 3, 3 ) ;
#104 = LOCAL_TIME ( 12, 40, 13.00000000000000000, #105 ) ;
#105 = COORDINATED_UNIVERSAL_TIME_OFFSET ( 5, 30, .AHEAD. ) ;
#106 = APPROVAL_PERSON_ORGANIZATION ( #110, #108, #107 ) ;
#107 = APPROVAL_ROLE ( '' ) ;
#108 = APPROVAL ( #109, 'UNSPECIFIED' ) ;
#109 = APPROVAL_STATUS ( 'not_yet_approved' ) ;
#110 = PERSON_AND_ORGANIZATION ( #167, #166 ) ;
#111 = PRODUCT_DEFINITION ( 'UNKNOWN', '', #90, #112 ) ;
#112 = DESIGN_CONTEXT ( 'detailed design', #114, 'design' ) ;
#113 = APPLICATION_PROTOCOL_DEFINITION ( 'international standard', 'config_control_design', 1994, #114 ) ;
#114 = APPLICATION_CONTEXT ( 'configuration controlled 3d designs of mechanical parts and assemblies' ) ;
#115 = CC_DESIGN_PERSON_AND_ORGANIZATION_ASSIGNMENT ( #117, #116, ( #168 ) ) ;
#116 = PERSON_AND_ORGANIZATION_ROLE ( 'design_owner' ) ;
#117 = PERSON_AND_ORGANIZATION ( #167, #166 ) ;
#118 = LENGTH_MEASURE_WITH_UNIT ( LENGTH_MEASURE( 0.02539999999999999900 ), #120 );
#119 = DIMENSIONAL_EXPONENTS ( 1.000000000000000000, 0.0000000000000000000, 0.0000000000000000000, 0.0000000000000000000, 0.0000000000000000000, 0.0000000000000000000, 0.0000000000000000000 ) ;
#120 =( LENGTH_UNIT ( ) NAMED_UNIT ( * ) SI_UNIT ( $, .METRE. ) );
#121 = DIRECTION ( 'NONE',  ( 0.0000000000000000000, 0.0000000000000000000, 1.000000000000000000 ) ) ;
#122 = DIRECTION ( 'NONE',  ( -1.000000000000000000, -0.0000000000000000000, -0.0000000000000000000 ) ) ;
#123 = CARTESIAN_POINT ( 'NONE',  ( 0.1000000000000000200, 0.0000000000000000000, 0.0000000000000000000 ) ) ;
#124 = AXIS2_PLACEMENT_3D ( 'NONE', #123, #122, #121 ) ;
#125 = CARTESIAN_POINT ( 'NONE',  ( 0.0000000000000000000, 0.0000000000000000000, 0.0000000000000000000 ) ) ;
#126 = TOROIDAL_SURFACE ( 'NONE', #124, 0.2249999999999999800, 0.03000000000000000900 ) ;
#127 = DIRECTION ( 'NONE',  ( 0.0000000000000000000, 0.0000000000000000000, 1.000000000000000000 ) ) ;
#128 = DIRECTION ( 'NONE',  ( -1.000000000000000000, -0.0000000000000000000, -0.0000000000000000000 ) ) ;
#129 = AXIS2_PLACEMENT_3D ( 'NONE', #154, #128, #127 ) ;
#130 = FACE_OUTER_BOUND ( 'NONE', #33, .T. ) ;
#131 = DIRECTION ( 'NONE',  ( 0.0000000000000000000, 0.0000000000000000000, 1.000000000000000000 ) ) ;
#132 = SHAPE_DEFINITION_REPRESENTATION ( #171, #133 ) ;
#133 = ADVANCED_BREP_SHAPE_REPRESENTATION ( 'OR-07-SI', ( #10, #163 ), #134 ) ;
#134 =( GEOMETRIC_REPRESENTATION_CONTEXT ( 3 ) GLOBAL_UNCERTAINTY_ASSIGNED_CONTEXT ( ( #140 ) ) GLOBAL_UNIT_ASSIGNED_CONTEXT ( ( #143, #142, #141 ) ) REPRESENTATION_CONTEXT ( 'NONE', 'WORKASPACE' ) );
#135 = AXIS2_PLACEMENT_3D ( 'NONE', #164, #152, #144 ) ;
#136 = DIRECTION ( 'NONE',  ( 0.0000000000000000000, 0.0000000000000000000, -1.000000000000000000 ) ) ;
#137 = DIRECTION ( 'NONE',  ( 0.0000000000000000000, -1.000000000000000000, 0.0000000000000000000 ) ) ;
#138 = AXIS2_PLACEMENT_3D ( 'NONE', #153, #137, #136 ) ;
#139 = CIRCLE ( 'NONE', #138, 0.03000000000000002300 ) ;
#140 = UNCERTAINTY_MEASURE_WITH_UNIT (LENGTH_MEASURE( 1.000000000000000100E-005 ), #143, 'distance_accuracy_value', 'NONE');
#141 =( NAMED_UNIT ( * ) SI_UNIT ( $, .STERADIAN. ) SOLID_ANGLE_UNIT ( ) );
#142 =( NAMED_UNIT ( * ) PLANE_ANGLE_UNIT ( ) SI_UNIT ( $, .RADIAN. ) );
#143 =( CONVERSION_BASED_UNIT ( 'INCH', #118 ) LENGTH_UNIT ( ) NAMED_UNIT ( #119 ) );
#144 = DIRECTION ( 'NONE',  ( 0.0000000000000000000, 0.0000000000000000000, 1.000000000000000000 ) ) ;
#145 = CIRCLE ( 'NONE', #135, 0.2550000000000000000 ) ;
#146 = DIRECTION ( 'NONE',  ( 0.0000000000000000000, 0.0000000000000000000, 1.000000000000000000 ) ) ;
#147 = DIRECTION ( 'NONE',  ( -1.000000000000000000, -0.0000000000000000000, -0.0000000000000000000 ) ) ;
#148 = AXIS2_PLACEMENT_3D ( 'NONE', #149, #147, #146 ) ;
#149 = CARTESIAN_POINT ( 'NONE',  ( 0.1000000000000000200, 0.0000000000000000000, 0.0000000000000000000 ) ) ;
#150 = CIRCLE ( 'NONE', #148, 0.1949999999999999800 ) ;
#151 = CARTESIAN_POINT ( 'NONE',  ( 0.1000000000000000200, 0.0000000000000000000, 0.2249999999999999800 ) ) ;
#152 = DIRECTION ( 'NONE',  ( -1.000000000000000000, -0.0000000000000000000, -0.0000000000000000000 ) ) ;
#153 = CARTESIAN_POINT ( 'NONE',  ( 0.1000000000000000200, 0.0000000000000000000, 0.2249999999999999800 ) ) ;
#154 = CARTESIAN_POINT ( 'NONE',  ( 0.1000000000000000200, 0.0000000000000000000, 0.0000000000000000000 ) ) ;
#155 = TOROIDAL_SURFACE ( 'NONE', #129, 0.2249999999999999800, 0.03000000000000000900 ) ;
#156 = FACE_OUTER_BOUND ( 'NONE', #36, .T. ) ;
#157 = DIRECTION ( 'NONE',  ( 0.0000000000000000000, 0.0000000000000000000, -1.000000000000000000 ) ) ;
#158 = DIRECTION ( 'NONE',  ( 0.0000000000000000000, -1.000000000000000000, 0.0000000000000000000 ) ) ;
#159 = AXIS2_PLACEMENT_3D ( 'NONE', #151, #158, #157 ) ;
#160 = CIRCLE ( 'NONE', #159, 0.03000000000000002300 ) ;
#161 = APPLICATION_CONTEXT ( 'configuration controlled 3d designs of mechanical parts and assemblies' ) ;
#162 = DIRECTION ( 'NONE',  ( 1.000000000000000000, 0.0000000000000000000, 0.0000000000000000000 ) ) ;
#163 = AXIS2_PLACEMENT_3D ( 'NONE', #125, #131, #162 ) ;
#164 = CARTESIAN_POINT ( 'NONE',  ( 0.1000000000000000200, 0.0000000000000000000, 0.0000000000000000000 ) ) ;
#165 = CARTESIAN_POINT ( 'NONE',  ( 0.1000000000000000200, 0.0000000000000000000, 0.2550000000000000000 ) ) ;
#166 = ORGANIZATION ( 'UNSPECIFIED', 'UNSPECIFIED', '' ) ;
#167 = PERSON ( 'UNSPECIFIED', 'UNSPECIFIED', 'UNSPECIFIED', ('UNSPECIFIED'), ('UNSPECIFIED'), ('UNSPECIFIED') ) ;
#168 = PRODUCT ( 'OR-07-SI', 'OR-07-SI', '', ( #169 ) ) ;
#169 = MECHANICAL_CONTEXT ( 'NONE', #161, 'mechanical' ) ;
#170 = APPLICATION_PROTOCOL_DEFINITION ( 'international standard', 'config_control_design', 1994, #161 ) ;
#171 = PRODUCT_DEFINITION_SHAPE ( 'NONE', 'NONE',  #111 ) ;
#172 = PRODUCT_RELATED_PRODUCT_CATEGORY ( 'detail', '', ( #168 ) ) ;
#173 = CC_DESIGN_SECURITY_CLASSIFICATION ( #194, ( #90 ) ) ;
#174 = CC_DESIGN_APPROVAL ( #182, ( #194 ) ) ;
#175 = APPROVAL_DATE_TIME ( #176, #182 ) ;
#176 = DATE_AND_TIME ( #177, #178 ) ;
#177 = CALENDAR_DATE ( 2006, 3, 3 ) ;
#178 = LOCAL_TIME ( 12, 40, 13.00000000000000000, #179 ) ;
#179 = COORDINATED_UNIVERSAL_TIME_OFFSET ( 5, 30, .AHEAD. ) ;
#180 = APPROVAL_PERSON_ORGANIZATION ( #184, #182, #181 ) ;
#181 = APPROVAL_ROLE ( '' ) ;
#182 = APPROVAL ( #183, 'UNSPECIFIED' ) ;
#183 = APPROVAL_STATUS ( 'not_yet_approved' ) ;
#184 = PERSON_AND_ORGANIZATION ( #167, #166 ) ;
#185 = CC_DESIGN_DATE_AND_TIME_ASSIGNMENT ( #187, #186, ( #194 ) ) ;
#186 = DATE_TIME_ROLE ( 'classification_date' ) ;
#187 = DATE_AND_TIME ( #188, #189 ) ;
#188 = CALENDAR_DATE ( 2006, 3, 3 ) ;
#189 = LOCAL_TIME ( 12, 40, 13.00000000000000000, #190 ) ;
#190 = COORDINATED_UNIVERSAL_TIME_OFFSET ( 5, 30, .AHEAD. ) ;
#191 = CC_DESIGN_PERSON_AND_ORGANIZATION_ASSIGNMENT ( #193, #192, ( #194 ) ) ;
#192 = PERSON_AND_ORGANIZATION_ROLE ( 'classification_officer' ) ;
#193 = PERSON_AND_ORGANIZATION ( #167, #166 ) ;
#194 = SECURITY_CLASSIFICATION ( '', '', #195 ) ;
#195 = SECURITY_CLASSIFICATION_LEVEL ( 'unclassified' ) ;
#196 = CC_DESIGN_PERSON_AND_ORGANIZATION_ASSIGNMENT ( #75, #74, ( #90 ) ) ;
ENDSEC;
END-ISO-10303-21;
