ISO-10303-21;
HEADER;
FILE_DESCRIPTION (( 'STEP AP203' ),
    '1' );
FILE_NAME ('OR-21-VT.STEP',
    '2008-06-24T10:06:28',
    ( 'BSI05' ),
    ( 'BAYSTATE' ),
    'SwSTEP 2.0',
    'SolidWorks 2007',
    '' );
FILE_SCHEMA (( 'CONFIG_CONTROL_DESIGN' ));
ENDSEC;

DATA;
#1 = LOCAL_TIME ( 15, 36, 28.00000000000000000, #164 ) ;
#2 = DATE_AND_TIME ( #3, #1 ) ;
#3 = CALENDAR_DATE ( 2008, 24, 6 ) ;
#4 = ORIENTED_EDGE ( 'NONE', *, *, #38, .F. ) ;
#5 = ORIENTED_EDGE ( 'NONE', *, *, #42, .F. ) ;
#6 = ORIENTED_EDGE ( 'NONE', *, *, #35, .T. ) ;
#7 = ORIENTED_EDGE ( 'NONE', *, *, #25, .T. ) ;
#8 = CLOSED_SHELL ( 'NONE', ( #13, #24, #16, #43 ) ) ;
#9 = EDGE_CURVE ( 'NONE', #10, #41, #33, .T. ) ;
#10 = VERTEX_POINT ( 'NONE', #56 ) ;
#11 = ORIENTED_EDGE ( 'NONE', *, *, #18, .F. ) ;
#12 = EDGE_LOOP ( 'NONE', ( #40, #20, #14, #37 ) ) ;
#13 = ADVANCED_FACE ( 'NONE', ( #125 ), #178, .T. ) ;
#14 = ORIENTED_EDGE ( 'NONE', *, *, #36, .T. ) ;
#15 = VERTEX_POINT ( 'NONE', #123 ) ;
#16 = ADVANCED_FACE ( 'NONE', ( #55 ), #116, .T. ) ;
#17 = ORIENTED_EDGE ( 'NONE', *, *, #18, .T. ) ;
#18 = EDGE_CURVE ( 'NONE', #39, #10, #96, .T. ) ;
#19 = ORIENTED_EDGE ( 'NONE', *, *, #9, .T. ) ;
#20 = ORIENTED_EDGE ( 'NONE', *, *, #38, .T. ) ;
#21 = ORIENTED_EDGE ( 'NONE', *, *, #22, .F. ) ;
#22 = EDGE_CURVE ( 'NONE', #15, #41, #176, .T. ) ;
#23 = EDGE_LOOP ( 'NONE', ( #11, #47, #26, #27 ) ) ;
#24 = ADVANCED_FACE ( 'NONE', ( #177 ), #122, .T. ) ;
#25 = EDGE_CURVE ( 'NONE', #15, #39, #110, .T. ) ;
#26 = ORIENTED_EDGE ( 'NONE', *, *, #22, .T. ) ;
#27 = ORIENTED_EDGE ( 'NONE', *, *, #42, .T. ) ;
#28 = DATE_TIME_ROLE ( 'classification_date' ) ;
#29 = DIRECTION ( 'NONE',  ( 0.0000000000000000000, -1.224646799147353000E-016, 1.000000000000000000 ) ) ;
#30 = DIRECTION ( 'NONE',  ( 0.0000000000000000000, 1.000000000000000000, 1.224646799147353200E-016 ) ) ;
#31 = CARTESIAN_POINT ( 'NONE',  ( 0.1000000000000000700, 6.735557395310442500E-017, -0.5500000000000000400 ) ) ;
#32 = AXIS2_PLACEMENT_3D ( 'NONE', #31, #30, #29 ) ;
#33 = CIRCLE ( 'NONE', #32, 0.03999999999999998000 ) ;
#34 = CC_DESIGN_DATE_AND_TIME_ASSIGNMENT ( #2, #28, ( #168 ) ) ;
#35 = EDGE_CURVE ( 'NONE', #41, #15, #114, .T. ) ;
#36 = EDGE_CURVE ( 'NONE', #39, #15, #98, .T. ) ;
#37 = ORIENTED_EDGE ( 'NONE', *, *, #35, .F. ) ;
#38 = EDGE_CURVE ( 'NONE', #10, #39, #158, .T. ) ;
#39 = VERTEX_POINT ( 'NONE', #159 ) ;
#40 = ORIENTED_EDGE ( 'NONE', *, *, #9, .F. ) ;
#41 = VERTEX_POINT ( 'NONE', #124 ) ;
#42 = EDGE_CURVE ( 'NONE', #41, #10, #129, .T. ) ;
#43 = ADVANCED_FACE ( 'NONE', ( #130 ), #160, .T. ) ;
#44 = EDGE_LOOP ( 'NONE', ( #4, #5, #6, #7 ) ) ;
#45 = ORIENTED_EDGE ( 'NONE', *, *, #36, .F. ) ;
#46 = EDGE_LOOP ( 'NONE', ( #45, #17, #19, #21 ) ) ;
#47 = ORIENTED_EDGE ( 'NONE', *, *, #25, .F. ) ;
#48 = MANIFOLD_SOLID_BREP ( 'NONE', #8 ) ;
#49 = APPROVAL_STATUS ( 'not_yet_approved' ) ;
#50 = PERSON_AND_ORGANIZATION ( #117, #88 ) ;
#51 = DIRECTION ( 'NONE',  ( 1.000000000000000000, 0.0000000000000000000, 0.0000000000000000000 ) ) ;
#52 = DIRECTION ( 'NONE',  ( 0.0000000000000000000, 0.0000000000000000000, 1.000000000000000000 ) ) ;
#53 = CARTESIAN_POINT ( 'NONE',  ( 0.0000000000000000000, 0.0000000000000000000, 0.0000000000000000000 ) ) ;
#54 = AXIS2_PLACEMENT_3D ( 'NONE', #53, #52, #51 ) ;
#55 = FACE_OUTER_BOUND ( 'NONE', #23, .T. ) ;
#56 = CARTESIAN_POINT ( 'NONE',  ( 0.1000000000000000700, 7.225416114969383900E-017, -0.5899999999999999700 ) ) ;
#57 = DIRECTION ( 'NONE',  ( 0.0000000000000000000, 0.0000000000000000000, -1.000000000000000000 ) ) ;
#58 = DIRECTION ( 'NONE',  ( 0.0000000000000000000, -1.000000000000000000, 0.0000000000000000000 ) ) ;
#59 = AXIS2_PLACEMENT_3D ( 'NONE', #131, #58, #57 ) ;
#60 =( LENGTH_UNIT ( ) NAMED_UNIT ( * ) SI_UNIT ( $, .METRE. ) );
#61 = DIRECTION ( 'NONE',  ( 0.0000000000000000000, 0.0000000000000000000, 1.000000000000000000 ) ) ;
#62 = DIRECTION ( 'NONE',  ( -1.000000000000000000, 0.0000000000000000000, 0.0000000000000000000 ) ) ;
#63 = DATE_AND_TIME ( #64, #65 ) ;
#64 = CALENDAR_DATE ( 2008, 24, 6 ) ;
#65 = LOCAL_TIME ( 15, 36, 28.00000000000000000, #66 ) ;
#66 = COORDINATED_UNIVERSAL_TIME_OFFSET ( 5, 30, .AHEAD. ) ;
#67 = CC_DESIGN_PERSON_AND_ORGANIZATION_ASSIGNMENT ( #69, #68, ( #81 ) ) ;
#68 = PERSON_AND_ORGANIZATION_ROLE ( 'creator' ) ;
#69 = PERSON_AND_ORGANIZATION ( #117, #88 ) ;
#70 = CC_DESIGN_APPROVAL ( #78, ( #81 ) ) ;
#71 = APPROVAL_DATE_TIME ( #72, #78 ) ;
#72 = DATE_AND_TIME ( #73, #74 ) ;
#73 = CALENDAR_DATE ( 2008, 24, 6 ) ;
#74 = LOCAL_TIME ( 15, 36, 28.00000000000000000, #75 ) ;
#75 = COORDINATED_UNIVERSAL_TIME_OFFSET ( 5, 30, .AHEAD. ) ;
#76 = APPROVAL_PERSON_ORGANIZATION ( #80, #78, #77 ) ;
#77 = APPROVAL_ROLE ( '' ) ;
#78 = APPROVAL ( #79, 'UNSPECIFIED' ) ;
#79 = APPROVAL_STATUS ( 'not_yet_approved' ) ;
#80 = PERSON_AND_ORGANIZATION ( #117, #88 ) ;
#81 = PRODUCT_DEFINITION ( 'UNKNOWN', '', #148, #82 ) ;
#82 = DESIGN_CONTEXT ( 'detailed design', #84, 'design' ) ;
#83 = APPLICATION_PROTOCOL_DEFINITION ( 'international standard', 'config_control_design', 1994, #84 ) ;
#84 = APPLICATION_CONTEXT ( 'configuration controlled 3d designs of mechanical parts and assemblies' ) ;
#85 = CC_DESIGN_PERSON_AND_ORGANIZATION_ASSIGNMENT ( #87, #86, ( #118 ) ) ;
#86 = PERSON_AND_ORGANIZATION_ROLE ( 'design_owner' ) ;
#87 = PERSON_AND_ORGANIZATION ( #117, #88 ) ;
#88 = ORGANIZATION ( 'UNSPECIFIED', 'UNSPECIFIED', '' ) ;
#89 = AXIS2_PLACEMENT_3D ( 'NONE', #183, #182, #153 ) ;
#90 = DIRECTION ( 'NONE',  ( 0.0000000000000000000, 0.0000000000000000000, 1.000000000000000000 ) ) ;
#91 = DIRECTION ( 'NONE',  ( -1.000000000000000000, 0.0000000000000000000, 0.0000000000000000000 ) ) ;
#92 = CARTESIAN_POINT ( 'NONE',  ( 0.1000000000000000700, 0.0000000000000000000, 0.0000000000000000000 ) ) ;
#93 = ADVANCED_BREP_SHAPE_REPRESENTATION ( 'OR-21-VT', ( #48, #54 ), #94 ) ;
#94 =( GEOMETRIC_REPRESENTATION_CONTEXT ( 3 ) GLOBAL_UNCERTAINTY_ASSIGNED_CONTEXT ( ( #126 ) ) GLOBAL_UNIT_ASSIGNED_CONTEXT ( ( #99, #108, #127 ) ) REPRESENTATION_CONTEXT ( 'NONE', 'WORKASPACE' ) );
#95 = AXIS2_PLACEMENT_3D ( 'NONE', #151, #135, #134 ) ;
#96 = CIRCLE ( 'NONE', #95, 0.5899999999999999700 ) ;
#97 = DIRECTION ( 'NONE',  ( 0.0000000000000000000, 0.0000000000000000000, 1.000000000000000000 ) ) ;
#98 = CIRCLE ( 'NONE', #156, 0.03999999999999998000 ) ;
#99 =( CONVERSION_BASED_UNIT ( 'INCH', #100 ) LENGTH_UNIT ( ) NAMED_UNIT ( #101 ) );
#100 = LENGTH_MEASURE_WITH_UNIT ( LENGTH_MEASURE( 0.02539999999999999900 ), #60 );
#101 = DIMENSIONAL_EXPONENTS ( 1.000000000000000000, 0.0000000000000000000, 0.0000000000000000000, 0.0000000000000000000, 0.0000000000000000000, 0.0000000000000000000, 0.0000000000000000000 ) ;
#102 = DIRECTION ( 'NONE',  ( 0.0000000000000000000, 0.0000000000000000000, 1.000000000000000000 ) ) ;
#103 = DIRECTION ( 'NONE',  ( -1.000000000000000000, 0.0000000000000000000, 0.0000000000000000000 ) ) ;
#104 = CARTESIAN_POINT ( 'NONE',  ( 0.1000000000000000700, 0.0000000000000000000, 0.0000000000000000000 ) ) ;
#105 = AXIS2_PLACEMENT_3D ( 'NONE', #104, #103, #102 ) ;
#106 = DIRECTION ( 'NONE',  ( -1.000000000000000000, 0.0000000000000000000, 0.0000000000000000000 ) ) ;
#107 = CARTESIAN_POINT ( 'NONE',  ( 0.1000000000000000700, 0.0000000000000000000, 0.0000000000000000000 ) ) ;
#108 =( NAMED_UNIT ( * ) PLANE_ANGLE_UNIT ( ) SI_UNIT ( $, .RADIAN. ) );
#109 = AXIS2_PLACEMENT_3D ( 'NONE', #152, #133, #132 ) ;
#110 = CIRCLE ( 'NONE', #59, 0.03999999999999998000 ) ;
#111 = CARTESIAN_POINT ( 'NONE',  ( 0.1000000000000000700, 0.0000000000000000000, 0.0000000000000000000 ) ) ;
#112 = AXIS2_PLACEMENT_3D ( 'NONE', #92, #91, #90 ) ;
#113 = AXIS2_PLACEMENT_3D ( 'NONE', #111, #62, #61 ) ;
#114 = CIRCLE ( 'NONE', #113, 0.5100000000000000100 ) ;
#115 = CARTESIAN_POINT ( 'NONE',  ( 0.1000000000000000700, 0.0000000000000000000, 0.5500000000000000400 ) ) ;
#116 = TOROIDAL_SURFACE ( 'NONE', #175, 0.5500000000000000400, 0.04000000000000000100 ) ;
#117 = PERSON ( 'UNSPECIFIED', 'UNSPECIFIED', 'UNSPECIFIED', ('UNSPECIFIED'), ('UNSPECIFIED'), ('UNSPECIFIED') ) ;
#118 = PRODUCT ( 'OR-21-VT', 'OR-21-VT', '', ( #119 ) ) ;
#119 = MECHANICAL_CONTEXT ( 'NONE', #121, 'mechanical' ) ;
#120 = APPLICATION_PROTOCOL_DEFINITION ( 'international standard', 'config_control_design', 1994, #121 ) ;
#121 = APPLICATION_CONTEXT ( 'configuration controlled 3d designs of mechanical parts and assemblies' ) ;
#122 = TOROIDAL_SURFACE ( 'NONE', #112, 0.5500000000000000400, 0.04000000000000000100 ) ;
#123 = CARTESIAN_POINT ( 'NONE',  ( 0.1000000000000000700, 0.0000000000000000000, 0.5100000000000000100 ) ) ;
#124 = CARTESIAN_POINT ( 'NONE',  ( 0.1000000000000000700, 6.245698675651502300E-017, -0.5100000000000000100 ) ) ;
#125 = FACE_OUTER_BOUND ( 'NONE', #12, .T. ) ;
#126 = UNCERTAINTY_MEASURE_WITH_UNIT (LENGTH_MEASURE( 1.000000000000000100E-005 ), #99, 'distance_accuracy_value', 'NONE');
#127 =( NAMED_UNIT ( * ) SI_UNIT ( $, .STERADIAN. ) SOLID_ANGLE_UNIT ( ) );
#128 = AXIS2_PLACEMENT_3D ( 'NONE', #163, #162, #161 ) ;
#129 = CIRCLE ( 'NONE', #128, 0.03999999999999998000 ) ;
#130 = FACE_OUTER_BOUND ( 'NONE', #44, .T. ) ;
#131 = CARTESIAN_POINT ( 'NONE',  ( 0.1000000000000000700, 0.0000000000000000000, 0.5500000000000000400 ) ) ;
#132 = DIRECTION ( 'NONE',  ( 0.0000000000000000000, 0.0000000000000000000, 1.000000000000000000 ) ) ;
#133 = DIRECTION ( 'NONE',  ( -1.000000000000000000, 0.0000000000000000000, 0.0000000000000000000 ) ) ;
#134 = DIRECTION ( 'NONE',  ( 0.0000000000000000000, 0.0000000000000000000, 1.000000000000000000 ) ) ;
#135 = DIRECTION ( 'NONE',  ( -1.000000000000000000, 0.0000000000000000000, 0.0000000000000000000 ) ) ;
#136 = PERSON_AND_ORGANIZATION ( #117, #88 ) ;
#137 = CC_DESIGN_APPROVAL ( #145, ( #148 ) ) ;
#138 = APPROVAL_DATE_TIME ( #139, #145 ) ;
#139 = DATE_AND_TIME ( #140, #141 ) ;
#140 = CALENDAR_DATE ( 2008, 24, 6 ) ;
#141 = LOCAL_TIME ( 15, 36, 28.00000000000000000, #142 ) ;
#142 = COORDINATED_UNIVERSAL_TIME_OFFSET ( 5, 30, .AHEAD. ) ;
#143 = APPROVAL_PERSON_ORGANIZATION ( #147, #145, #144 ) ;
#144 = APPROVAL_ROLE ( '' ) ;
#145 = APPROVAL ( #146, 'UNSPECIFIED' ) ;
#146 = APPROVAL_STATUS ( 'not_yet_approved' ) ;
#147 = PERSON_AND_ORGANIZATION ( #117, #88 ) ;
#148 = PRODUCT_DEFINITION_FORMATION_WITH_SPECIFIED_SOURCE ( 'ANY', '', #118, .NOT_KNOWN. ) ;
#149 = CC_DESIGN_DATE_AND_TIME_ASSIGNMENT ( #63, #150, ( #81 ) ) ;
#150 = DATE_TIME_ROLE ( 'creation_date' ) ;
#151 = CARTESIAN_POINT ( 'NONE',  ( 0.1000000000000000700, 0.0000000000000000000, 0.0000000000000000000 ) ) ;
#152 = CARTESIAN_POINT ( 'NONE',  ( 0.1000000000000000700, 0.0000000000000000000, 0.0000000000000000000 ) ) ;
#153 = DIRECTION ( 'NONE',  ( 0.0000000000000000000, 0.0000000000000000000, 1.000000000000000000 ) ) ;
#154 = DIRECTION ( 'NONE',  ( 0.0000000000000000000, 0.0000000000000000000, -1.000000000000000000 ) ) ;
#155 = DIRECTION ( 'NONE',  ( 0.0000000000000000000, -1.000000000000000000, 0.0000000000000000000 ) ) ;
#156 = AXIS2_PLACEMENT_3D ( 'NONE', #115, #155, #154 ) ;
#157 = CARTESIAN_POINT ( 'NONE',  ( 0.1000000000000000700, 0.0000000000000000000, 0.0000000000000000000 ) ) ;
#158 = CIRCLE ( 'NONE', #181, 0.5899999999999999700 ) ;
#159 = CARTESIAN_POINT ( 'NONE',  ( 0.1000000000000000700, 0.0000000000000000000, 0.5899999999999999700 ) ) ;
#160 = TOROIDAL_SURFACE ( 'NONE', #105, 0.5500000000000000400, 0.04000000000000000100 ) ;
#161 = DIRECTION ( 'NONE',  ( 0.0000000000000000000, -1.224646799147353000E-016, 1.000000000000000000 ) ) ;
#162 = DIRECTION ( 'NONE',  ( 0.0000000000000000000, 1.000000000000000000, 1.224646799147353200E-016 ) ) ;
#163 = CARTESIAN_POINT ( 'NONE',  ( 0.1000000000000000700, 6.735557395310442500E-017, -0.5500000000000000400 ) ) ;
#164 = COORDINATED_UNIVERSAL_TIME_OFFSET ( 5, 30, .AHEAD. ) ;
#165 = CC_DESIGN_PERSON_AND_ORGANIZATION_ASSIGNMENT ( #167, #166, ( #168 ) ) ;
#166 = PERSON_AND_ORGANIZATION_ROLE ( 'classification_officer' ) ;
#167 = PERSON_AND_ORGANIZATION ( #117, #88 ) ;
#168 = SECURITY_CLASSIFICATION ( '', '', #169 ) ;
#169 = SECURITY_CLASSIFICATION_LEVEL ( 'unclassified' ) ;
#170 = CC_DESIGN_PERSON_AND_ORGANIZATION_ASSIGNMENT ( #172, #171, ( #148 ) ) ;
#171 = PERSON_AND_ORGANIZATION_ROLE ( 'design_supplier' ) ;
#172 = PERSON_AND_ORGANIZATION ( #117, #88 ) ;
#173 = CC_DESIGN_PERSON_AND_ORGANIZATION_ASSIGNMENT ( #136, #174, ( #148 ) ) ;
#174 = PERSON_AND_ORGANIZATION_ROLE ( 'creator' ) ;
#175 = AXIS2_PLACEMENT_3D ( 'NONE', #107, #106, #97 ) ;
#176 = CIRCLE ( 'NONE', #109, 0.5100000000000000100 ) ;
#177 = FACE_OUTER_BOUND ( 'NONE', #46, .T. ) ;
#178 = TOROIDAL_SURFACE ( 'NONE', #89, 0.5500000000000000400, 0.04000000000000000100 ) ;
#179 = DIRECTION ( 'NONE',  ( 0.0000000000000000000, 0.0000000000000000000, 1.000000000000000000 ) ) ;
#180 = DIRECTION ( 'NONE',  ( -1.000000000000000000, 0.0000000000000000000, 0.0000000000000000000 ) ) ;
#181 = AXIS2_PLACEMENT_3D ( 'NONE', #157, #180, #179 ) ;
#182 = DIRECTION ( 'NONE',  ( -1.000000000000000000, 0.0000000000000000000, 0.0000000000000000000 ) ) ;
#183 = CARTESIAN_POINT ( 'NONE',  ( 0.1000000000000000700, 0.0000000000000000000, 0.0000000000000000000 ) ) ;
#184 = COORDINATED_UNIVERSAL_TIME_OFFSET ( 5, 30, .AHEAD. ) ;
#185 = CC_DESIGN_APPROVAL ( #195, ( #168 ) ) ;
#186 = SHAPE_DEFINITION_REPRESENTATION ( #190, #93 ) ;
#187 = CC_DESIGN_SECURITY_CLASSIFICATION ( #168, ( #148 ) ) ;
#188 = APPROVAL_DATE_TIME ( #191, #195 ) ;
#189 = APPROVAL_ROLE ( '' ) ;
#190 = PRODUCT_DEFINITION_SHAPE ( 'NONE', 'NONE',  #81 ) ;
#191 = DATE_AND_TIME ( #194, #193 ) ;
#192 = APPROVAL_PERSON_ORGANIZATION ( #50, #195, #189 ) ;
#193 = LOCAL_TIME ( 15, 36, 28.00000000000000000, #184 ) ;
#194 = CALENDAR_DATE ( 2008, 24, 6 ) ;
#195 = APPROVAL ( #49, 'UNSPECIFIED' ) ;
#196 = PRODUCT_RELATED_PRODUCT_CATEGORY ( 'detail', '', ( #118 ) ) ;
ENDSEC;
END-ISO-10303-21;
