ISO-10303-21;
HEADER;
FILE_DESCRIPTION (( 'STEP AP203' ),
    '1' );
FILE_NAME ('OR-29-BN.STEP',
    '2008-03-29T09:55:51',
    ( 'Baystate-05' ),
    ( 'BayState InfoTech' ),
    'SwSTEP 2.0',
    'SolidWorks 2007',
    '' );
FILE_SCHEMA (( 'CONFIG_CONTROL_DESIGN' ));
ENDSEC;

DATA;
#1 = CARTESIAN_POINT ( 'NONE',  ( 0.1000000000000000900, 0.0000000000000000000, 0.6900000000000000600 ) ) ;
#2 = DIRECTION ( 'NONE',  ( 0.0000000000000000000, 0.0000000000000000000, 1.000000000000000000 ) ) ;
#3 = DIRECTION ( 'NONE',  ( -1.000000000000000000, 0.0000000000000000000, 0.0000000000000000000 ) ) ;
#4 = CARTESIAN_POINT ( 'NONE',  ( 0.1000000000000000900, 0.0000000000000000000, 0.0000000000000000000 ) ) ;
#5 = AXIS2_PLACEMENT_3D ( 'NONE', #4, #3, #2 ) ;
#6 = CIRCLE ( 'NONE', #5, 0.7299999999999999800 ) ;
#7 = DIRECTION ( 'NONE',  ( 0.0000000000000000000, -1.000000000000000000, 0.0000000000000000000 ) ) ;
#8 = CARTESIAN_POINT ( 'NONE',  ( 0.1000000000000000900, 7.960204194457796700E-017, -0.6500000000000000200 ) ) ;
#9 = CARTESIAN_POINT ( 'NONE',  ( 0.1000000000000000900, 8.939921633775677100E-017, -0.7299999999999999800 ) ) ;
#10 = MANIFOLD_SOLID_BREP ( 'NONE', #40 ) ;
#11 = VERTEX_POINT ( 'NONE', #9 ) ;
#12 = VERTEX_POINT ( 'NONE', #8 ) ;
#13 = EDGE_CURVE ( 'NONE', #11, #14, #6, .T. ) ;
#14 = VERTEX_POINT ( 'NONE', #51 ) ;
#15 = ORIENTED_EDGE ( 'NONE', *, *, #19, .T. ) ;
#16 = VERTEX_POINT ( 'NONE', #50 ) ;
#17 = EDGE_LOOP ( 'NONE', ( #48, #18, #15, #44 ) ) ;
#18 = ORIENTED_EDGE ( 'NONE', *, *, #13, .T. ) ;
#19 = EDGE_CURVE ( 'NONE', #14, #16, #53, .T. ) ;
#20 = CC_DESIGN_APPROVAL ( #153, ( #140 ) ) ;
#21 = APPROVAL_DATE_TIME ( #147, #153 ) ;
#22 = ADVANCED_FACE ( 'NONE', ( #68 ), #99, .T. ) ;
#23 = ORIENTED_EDGE ( 'NONE', *, *, #13, .F. ) ;
#24 = EDGE_LOOP ( 'NONE', ( #35, #29, #38, #25 ) ) ;
#25 = ORIENTED_EDGE ( 'NONE', *, *, #34, .T. ) ;
#26 = EDGE_LOOP ( 'NONE', ( #23, #31, #32, #27 ) ) ;
#27 = ORIENTED_EDGE ( 'NONE', *, *, #28, .T. ) ;
#28 = EDGE_CURVE ( 'NONE', #16, #14, #77, .T. ) ;
#29 = ORIENTED_EDGE ( 'NONE', *, *, #28, .F. ) ;
#30 = ADVANCED_FACE ( 'NONE', ( #78 ), #92, .T. ) ;
#31 = ORIENTED_EDGE ( 'NONE', *, *, #34, .F. ) ;
#32 = ORIENTED_EDGE ( 'NONE', *, *, #45, .T. ) ;
#33 = ORIENTED_EDGE ( 'NONE', *, *, #19, .F. ) ;
#34 = EDGE_CURVE ( 'NONE', #12, #11, #73, .T. ) ;
#35 = ORIENTED_EDGE ( 'NONE', *, *, #42, .F. ) ;
#36 = ORIENTED_EDGE ( 'NONE', *, *, #41, .F. ) ;
#37 = ORIENTED_EDGE ( 'NONE', *, *, #49, .T. ) ;
#38 = ORIENTED_EDGE ( 'NONE', *, *, #41, .T. ) ;
#39 = ORIENTED_EDGE ( 'NONE', *, *, #42, .T. ) ;
#40 = CLOSED_SHELL ( 'NONE', ( #43, #46, #22, #30 ) ) ;
#41 = EDGE_CURVE ( 'NONE', #16, #12, #71, .T. ) ;
#42 = EDGE_CURVE ( 'NONE', #14, #11, #74, .T. ) ;
#43 = ADVANCED_FACE ( 'NONE', ( #67 ), #59, .T. ) ;
#44 = ORIENTED_EDGE ( 'NONE', *, *, #45, .F. ) ;
#45 = EDGE_CURVE ( 'NONE', #12, #16, #87, .T. ) ;
#46 = ADVANCED_FACE ( 'NONE', ( #88 ), #118, .T. ) ;
#47 = EDGE_LOOP ( 'NONE', ( #33, #39, #37, #36 ) ) ;
#48 = ORIENTED_EDGE ( 'NONE', *, *, #49, .F. ) ;
#49 = EDGE_CURVE ( 'NONE', #11, #12, #164, .T. ) ;
#50 = CARTESIAN_POINT ( 'NONE',  ( 0.1000000000000000900, 0.0000000000000000000, 0.6500000000000000200 ) ) ;
#51 = CARTESIAN_POINT ( 'NONE',  ( 0.1000000000000000900, 0.0000000000000000000, 0.7299999999999999800 ) ) ;
#52 = AXIS2_PLACEMENT_3D ( 'NONE', #1, #7, #79 ) ;
#53 = CIRCLE ( 'NONE', #52, 0.03999999999999998000 ) ;
#54 = CC_DESIGN_SECURITY_CLASSIFICATION ( #140, ( #122 ) ) ;
#55 = DIRECTION ( 'NONE',  ( 0.0000000000000000000, 0.0000000000000000000, 1.000000000000000000 ) ) ;
#56 = DIRECTION ( 'NONE',  ( -1.000000000000000000, 0.0000000000000000000, 0.0000000000000000000 ) ) ;
#57 = CARTESIAN_POINT ( 'NONE',  ( 0.1000000000000000900, 0.0000000000000000000, 0.0000000000000000000 ) ) ;
#58 = AXIS2_PLACEMENT_3D ( 'NONE', #57, #56, #55 ) ;
#59 = TOROIDAL_SURFACE ( 'NONE', #58, 0.6900000000000000600, 0.03999999999999997300 ) ;
#60 = DIRECTION ( 'NONE',  ( 0.0000000000000000000, -1.224646799147351000E-016, 1.000000000000000000 ) ) ;
#61 = DIRECTION ( 'NONE',  ( 0.0000000000000000000, 1.000000000000000000, 1.224646799147353200E-016 ) ) ;
#62 = CARTESIAN_POINT ( 'NONE',  ( 0.1000000000000000900, 8.450062914116736900E-017, -0.6900000000000000600 ) ) ;
#63 = AXIS2_PLACEMENT_3D ( 'NONE', #62, #61, #60 ) ;
#64 = DIRECTION ( 'NONE',  ( 0.0000000000000000000, 0.0000000000000000000, 1.000000000000000000 ) ) ;
#65 = DIRECTION ( 'NONE',  ( -1.000000000000000000, 0.0000000000000000000, 0.0000000000000000000 ) ) ;
#66 = AXIS2_PLACEMENT_3D ( 'NONE', #72, #65, #64 ) ;
#67 = FACE_OUTER_BOUND ( 'NONE', #17, .T. ) ;
#68 = FACE_OUTER_BOUND ( 'NONE', #24, .T. ) ;
#69 = CARTESIAN_POINT ( 'NONE',  ( 0.1000000000000000900, 0.0000000000000000000, 0.0000000000000000000 ) ) ;
#70 = AXIS2_PLACEMENT_3D ( 'NONE', #69, #76, #75 ) ;
#71 = CIRCLE ( 'NONE', #70, 0.6500000000000000200 ) ;
#72 = CARTESIAN_POINT ( 'NONE',  ( 0.1000000000000000900, 0.0000000000000000000, 0.0000000000000000000 ) ) ;
#73 = CIRCLE ( 'NONE', #63, 0.03999999999999998000 ) ;
#74 = CIRCLE ( 'NONE', #66, 0.7299999999999999800 ) ;
#75 = DIRECTION ( 'NONE',  ( 0.0000000000000000000, 0.0000000000000000000, 1.000000000000000000 ) ) ;
#76 = DIRECTION ( 'NONE',  ( -1.000000000000000000, 0.0000000000000000000, 0.0000000000000000000 ) ) ;
#77 = CIRCLE ( 'NONE', #81, 0.03999999999999998000 ) ;
#78 = FACE_OUTER_BOUND ( 'NONE', #26, .T. ) ;
#79 = DIRECTION ( 'NONE',  ( 0.0000000000000000000, 0.0000000000000000000, -1.000000000000000000 ) ) ;
#80 = CARTESIAN_POINT ( 'NONE',  ( 0.1000000000000000900, 0.0000000000000000000, 0.0000000000000000000 ) ) ;
#81 = AXIS2_PLACEMENT_3D ( 'NONE', #95, #94, #93 ) ;
#82 = DIRECTION ( 'NONE',  ( 0.0000000000000000000, 0.0000000000000000000, 1.000000000000000000 ) ) ;
#83 = DIRECTION ( 'NONE',  ( 0.0000000000000000000, 0.0000000000000000000, 1.000000000000000000 ) ) ;
#84 = DIRECTION ( 'NONE',  ( -1.000000000000000000, 0.0000000000000000000, 0.0000000000000000000 ) ) ;
#85 = CARTESIAN_POINT ( 'NONE',  ( 0.1000000000000000900, 0.0000000000000000000, 0.0000000000000000000 ) ) ;
#86 = AXIS2_PLACEMENT_3D ( 'NONE', #85, #84, #83 ) ;
#87 = CIRCLE ( 'NONE', #86, 0.6500000000000000200 ) ;
#88 = FACE_OUTER_BOUND ( 'NONE', #47, .T. ) ;
#89 = DIRECTION ( 'NONE',  ( 0.0000000000000000000, 0.0000000000000000000, 1.000000000000000000 ) ) ;
#90 = DIRECTION ( 'NONE',  ( -1.000000000000000000, 0.0000000000000000000, 0.0000000000000000000 ) ) ;
#91 = AXIS2_PLACEMENT_3D ( 'NONE', #80, #90, #89 ) ;
#92 = TOROIDAL_SURFACE ( 'NONE', #91, 0.6900000000000000600, 0.03999999999999997300 ) ;
#93 = DIRECTION ( 'NONE',  ( 0.0000000000000000000, 0.0000000000000000000, -1.000000000000000000 ) ) ;
#94 = DIRECTION ( 'NONE',  ( 0.0000000000000000000, -1.000000000000000000, 0.0000000000000000000 ) ) ;
#95 = CARTESIAN_POINT ( 'NONE',  ( 0.1000000000000000900, 0.0000000000000000000, 0.6900000000000000600 ) ) ;
#96 = DIRECTION ( 'NONE',  ( -1.000000000000000000, 0.0000000000000000000, 0.0000000000000000000 ) ) ;
#97 = CARTESIAN_POINT ( 'NONE',  ( 0.1000000000000000900, 0.0000000000000000000, 0.0000000000000000000 ) ) ;
#98 = AXIS2_PLACEMENT_3D ( 'NONE', #97, #96, #82 ) ;
#99 = TOROIDAL_SURFACE ( 'NONE', #98, 0.6900000000000000600, 0.03999999999999997300 ) ;
#100 = APPROVAL_ROLE ( '' ) ;
#101 = APPROVAL ( #102, 'UNSPECIFIED' ) ;
#102 = APPROVAL_STATUS ( 'not_yet_approved' ) ;
#103 = PERSON_AND_ORGANIZATION ( #158, #157 ) ;
#104 = PRODUCT_DEFINITION ( 'UNKNOWN', '', #122, #105 ) ;
#105 = DESIGN_CONTEXT ( 'detailed design', #107, 'design' ) ;
#106 = APPLICATION_PROTOCOL_DEFINITION ( 'international standard', 'config_control_design', 1994, #107 ) ;
#107 = APPLICATION_CONTEXT ( 'configuration controlled 3d designs of mechanical parts and assemblies' ) ;
#108 = CC_DESIGN_PERSON_AND_ORGANIZATION_ASSIGNMENT ( #110, #109, ( #122 ) ) ;
#109 = PERSON_AND_ORGANIZATION_ROLE ( 'design_supplier' ) ;
#110 = PERSON_AND_ORGANIZATION ( #158, #157 ) ;
#111 = CC_DESIGN_PERSON_AND_ORGANIZATION_ASSIGNMENT ( #113, #112, ( #122 ) ) ;
#112 = PERSON_AND_ORGANIZATION_ROLE ( 'creator' ) ;
#113 = PERSON_AND_ORGANIZATION ( #158, #157 ) ;
#114 = CARTESIAN_POINT ( 'NONE',  ( 0.1000000000000000900, 0.0000000000000000000, 0.0000000000000000000 ) ) ;
#115 = ADVANCED_BREP_SHAPE_REPRESENTATION ( 'OR-29-BN', ( #10, #117 ), #191 ) ;
#116 = CARTESIAN_POINT ( 'NONE',  ( 0.0000000000000000000, 0.0000000000000000000, 0.0000000000000000000 ) ) ;
#117 = AXIS2_PLACEMENT_3D ( 'NONE', #116, #183, #128 ) ;
#118 = TOROIDAL_SURFACE ( 'NONE', #163, 0.6900000000000000600, 0.03999999999999997300 ) ;
#119 = APPROVAL ( #120, 'UNSPECIFIED' ) ;
#120 = APPROVAL_STATUS ( 'not_yet_approved' ) ;
#121 = PERSON_AND_ORGANIZATION ( #158, #157 ) ;
#122 = PRODUCT_DEFINITION_FORMATION_WITH_SPECIFIED_SOURCE ( 'ANY', '', #185, .NOT_KNOWN. ) ;
#123 = CC_DESIGN_DATE_AND_TIME_ASSIGNMENT ( #125, #124, ( #104 ) ) ;
#124 = DATE_TIME_ROLE ( 'creation_date' ) ;
#125 = DATE_AND_TIME ( #126, #159 ) ;
#126 = CALENDAR_DATE ( 2008, 29, 3 ) ;
#127 =( CONVERSION_BASED_UNIT ( 'INCH', #130 ) LENGTH_UNIT ( ) NAMED_UNIT ( #131 ) );
#128 = DIRECTION ( 'NONE',  ( 1.000000000000000000, 0.0000000000000000000, 0.0000000000000000000 ) ) ;
#129 = DIRECTION ( 'NONE',  ( -1.000000000000000000, 0.0000000000000000000, 0.0000000000000000000 ) ) ;
#130 = LENGTH_MEASURE_WITH_UNIT ( LENGTH_MEASURE( 0.02539999999999999900 ), #182 );
#131 = DIMENSIONAL_EXPONENTS ( 1.000000000000000000, 0.0000000000000000000, 0.0000000000000000000, 0.0000000000000000000, 0.0000000000000000000, 0.0000000000000000000, 0.0000000000000000000 ) ;
#132 = DATE_TIME_ROLE ( 'classification_date' ) ;
#133 = DATE_AND_TIME ( #134, #135 ) ;
#134 = CALENDAR_DATE ( 2008, 29, 3 ) ;
#135 = LOCAL_TIME ( 15, 25, 51.00000000000000000, #136 ) ;
#136 = COORDINATED_UNIVERSAL_TIME_OFFSET ( 5, 30, .AHEAD. ) ;
#137 = CC_DESIGN_PERSON_AND_ORGANIZATION_ASSIGNMENT ( #139, #138, ( #140 ) ) ;
#138 = PERSON_AND_ORGANIZATION_ROLE ( 'classification_officer' ) ;
#139 = PERSON_AND_ORGANIZATION ( #158, #157 ) ;
#140 = SECURITY_CLASSIFICATION ( '', '', #141 ) ;
#141 = SECURITY_CLASSIFICATION_LEVEL ( 'unclassified' ) ;
#142 =( NAMED_UNIT ( * ) PLANE_ANGLE_UNIT ( ) SI_UNIT ( $, .RADIAN. ) );
#143 = DIRECTION ( 'NONE',  ( 0.0000000000000000000, -1.224646799147351000E-016, 1.000000000000000000 ) ) ;
#144 = DIRECTION ( 'NONE',  ( 0.0000000000000000000, 1.000000000000000000, 1.224646799147353200E-016 ) ) ;
#145 = AXIS2_PLACEMENT_3D ( 'NONE', #193, #144, #143 ) ;
#146 = DIRECTION ( 'NONE',  ( 0.0000000000000000000, 0.0000000000000000000, 1.000000000000000000 ) ) ;
#147 = DATE_AND_TIME ( #148, #149 ) ;
#148 = CALENDAR_DATE ( 2008, 29, 3 ) ;
#149 = LOCAL_TIME ( 15, 25, 51.00000000000000000, #150 ) ;
#150 = COORDINATED_UNIVERSAL_TIME_OFFSET ( 5, 30, .AHEAD. ) ;
#151 = APPROVAL_PERSON_ORGANIZATION ( #155, #153, #152 ) ;
#152 = APPROVAL_ROLE ( '' ) ;
#153 = APPROVAL ( #154, 'UNSPECIFIED' ) ;
#154 = APPROVAL_STATUS ( 'not_yet_approved' ) ;
#155 = PERSON_AND_ORGANIZATION ( #158, #157 ) ;
#156 = CC_DESIGN_DATE_AND_TIME_ASSIGNMENT ( #133, #132, ( #140 ) ) ;
#157 = ORGANIZATION ( 'UNSPECIFIED', 'UNSPECIFIED', '' ) ;
#158 = PERSON ( 'UNSPECIFIED', 'UNSPECIFIED', 'UNSPECIFIED', ('UNSPECIFIED'), ('UNSPECIFIED'), ('UNSPECIFIED') ) ;
#159 = LOCAL_TIME ( 15, 25, 51.00000000000000000, #160 ) ;
#160 = COORDINATED_UNIVERSAL_TIME_OFFSET ( 5, 30, .AHEAD. ) ;
#161 = CC_DESIGN_PERSON_AND_ORGANIZATION_ASSIGNMENT ( #173, #162, ( #104 ) ) ;
#162 = PERSON_AND_ORGANIZATION_ROLE ( 'creator' ) ;
#163 = AXIS2_PLACEMENT_3D ( 'NONE', #114, #129, #146 ) ;
#164 = CIRCLE ( 'NONE', #145, 0.03999999999999998000 ) ;
#165 = CC_DESIGN_APPROVAL ( #119, ( #122 ) ) ;
#166 = APPROVAL_DATE_TIME ( #167, #119 ) ;
#167 = DATE_AND_TIME ( #168, #169 ) ;
#168 = CALENDAR_DATE ( 2008, 29, 3 ) ;
#169 = LOCAL_TIME ( 15, 25, 51.00000000000000000, #170 ) ;
#170 = COORDINATED_UNIVERSAL_TIME_OFFSET ( 5, 30, .AHEAD. ) ;
#171 = APPROVAL_PERSON_ORGANIZATION ( #121, #119, #172 ) ;
#172 = APPROVAL_ROLE ( '' ) ;
#173 = PERSON_AND_ORGANIZATION ( #158, #157 ) ;
#174 = CC_DESIGN_APPROVAL ( #101, ( #104 ) ) ;
#175 = APPROVAL_DATE_TIME ( #176, #101 ) ;
#176 = DATE_AND_TIME ( #177, #178 ) ;
#177 = CALENDAR_DATE ( 2008, 29, 3 ) ;
#178 = LOCAL_TIME ( 15, 25, 51.00000000000000000, #179 ) ;
#179 = COORDINATED_UNIVERSAL_TIME_OFFSET ( 5, 30, .AHEAD. ) ;
#180 = APPROVAL_PERSON_ORGANIZATION ( #103, #101, #100 ) ;
#181 = UNCERTAINTY_MEASURE_WITH_UNIT (LENGTH_MEASURE( 1.000000000000000100E-005 ), #127, 'distance_accuracy_value', 'NONE');
#182 =( LENGTH_UNIT ( ) NAMED_UNIT ( * ) SI_UNIT ( $, .METRE. ) );
#183 = DIRECTION ( 'NONE',  ( 0.0000000000000000000, 0.0000000000000000000, 1.000000000000000000 ) ) ;
#184 = CC_DESIGN_PERSON_AND_ORGANIZATION_ASSIGNMENT ( #190, #189, ( #185 ) ) ;
#185 = PRODUCT ( 'OR-29-BN', 'OR-29-BN', '', ( #186 ) ) ;
#186 = MECHANICAL_CONTEXT ( 'NONE', #188, 'mechanical' ) ;
#187 = APPLICATION_PROTOCOL_DEFINITION ( 'international standard', 'config_control_design', 1994, #188 ) ;
#188 = APPLICATION_CONTEXT ( 'configuration controlled 3d designs of mechanical parts and assemblies' ) ;
#189 = PERSON_AND_ORGANIZATION_ROLE ( 'design_owner' ) ;
#190 = PERSON_AND_ORGANIZATION ( #158, #157 ) ;
#191 =( GEOMETRIC_REPRESENTATION_CONTEXT ( 3 ) GLOBAL_UNCERTAINTY_ASSIGNED_CONTEXT ( ( #181 ) ) GLOBAL_UNIT_ASSIGNED_CONTEXT ( ( #127, #142, #192 ) ) REPRESENTATION_CONTEXT ( 'NONE', 'WORKASPACE' ) );
#192 =( NAMED_UNIT ( * ) SI_UNIT ( $, .STERADIAN. ) SOLID_ANGLE_UNIT ( ) );
#193 = CARTESIAN_POINT ( 'NONE',  ( 0.1000000000000000900, 8.450062914116736900E-017, -0.6900000000000000600 ) ) ;
#194 = SHAPE_DEFINITION_REPRESENTATION ( #195, #115 ) ;
#195 = PRODUCT_DEFINITION_SHAPE ( 'NONE', 'NONE',  #104 ) ;
#196 = PRODUCT_RELATED_PRODUCT_CATEGORY ( 'detail', '', ( #185 ) ) ;
ENDSEC;
END-ISO-10303-21;
