ISO-10303-21;
HEADER;
FILE_DESCRIPTION (( 'STEP AP203' ),
    '1' );
FILE_NAME ('OR-29-VT.STEP',
    '2008-06-24T10:17:35',
    ( 'BSI05' ),
    ( 'BAYSTATE' ),
    'SwSTEP 2.0',
    'SolidWorks 2007',
    '' );
FILE_SCHEMA (( 'CONFIG_CONTROL_DESIGN' ));
ENDSEC;

DATA;
#1 = ORIENTED_EDGE ( 'NONE', *, *, #2, .F. ) ;
#2 = EDGE_CURVE ( 'NONE', #28, #26, #65, .T. ) ;
#3 = ADVANCED_FACE ( 'NONE', ( #103 ), #182, .T. ) ;
#4 = EDGE_LOOP ( 'NONE', ( #5, #6, #8, #9 ) ) ;
#5 = ORIENTED_EDGE ( 'NONE', *, *, #35, .F. ) ;
#6 = ORIENTED_EDGE ( 'NONE', *, *, #7, .F. ) ;
#7 = EDGE_CURVE ( 'NONE', #28, #18, #88, .T. ) ;
#8 = ORIENTED_EDGE ( 'NONE', *, *, #2, .T. ) ;
#9 = ORIENTED_EDGE ( 'NONE', *, *, #10, .T. ) ;
#10 = EDGE_CURVE ( 'NONE', #26, #25, #185, .T. ) ;
#11 = EDGE_LOOP ( 'NONE', ( #102, #12, #13, #14 ) ) ;
#12 = ORIENTED_EDGE ( 'NONE', *, *, #10, .F. ) ;
#13 = ORIENTED_EDGE ( 'NONE', *, *, #30, .T. ) ;
#14 = ORIENTED_EDGE ( 'NONE', *, *, #7, .T. ) ;
#15 = CLOSED_SHELL ( 'NONE', ( #27, #31, #3, #186 ) ) ;
#16 = ORIENTED_EDGE ( 'NONE', *, *, #17, .T. ) ;
#17 = EDGE_CURVE ( 'NONE', #25, #18, #180, .T. ) ;
#18 = VERTEX_POINT ( 'NONE', #181 ) ;
#19 = ORIENTED_EDGE ( 'NONE', *, *, #20, .T. ) ;
#20 = EDGE_CURVE ( 'NONE', #18, #28, #128, .T. ) ;
#21 = MANIFOLD_SOLID_BREP ( 'NONE', #15 ) ;
#22 = EDGE_LOOP ( 'NONE', ( #23, #16, #19, #29 ) ) ;
#23 = ORIENTED_EDGE ( 'NONE', *, *, #24, .F. ) ;
#24 = EDGE_CURVE ( 'NONE', #25, #26, #95, .T. ) ;
#25 = VERTEX_POINT ( 'NONE', #139 ) ;
#26 = VERTEX_POINT ( 'NONE', #138 ) ;
#27 = ADVANCED_FACE ( 'NONE', ( #137 ), #136, .T. ) ;
#28 = VERTEX_POINT ( 'NONE', #135 ) ;
#29 = ORIENTED_EDGE ( 'NONE', *, *, #30, .F. ) ;
#30 = EDGE_CURVE ( 'NONE', #26, #28, #123, .T. ) ;
#31 = ADVANCED_FACE ( 'NONE', ( #119 ), #94, .T. ) ;
#32 = EDGE_LOOP ( 'NONE', ( #33, #34, #36, #1 ) ) ;
#33 = ORIENTED_EDGE ( 'NONE', *, *, #20, .F. ) ;
#34 = ORIENTED_EDGE ( 'NONE', *, *, #35, .T. ) ;
#35 = EDGE_CURVE ( 'NONE', #18, #25, #89, .T. ) ;
#36 = ORIENTED_EDGE ( 'NONE', *, *, #24, .T. ) ;
#37 = PERSON_AND_ORGANIZATION_ROLE ( 'creator' ) ;
#38 = PERSON_AND_ORGANIZATION ( #55, #54 ) ;
#39 = CC_DESIGN_APPROVAL ( #47, ( #50 ) ) ;
#40 = APPROVAL_DATE_TIME ( #41, #47 ) ;
#41 = DATE_AND_TIME ( #42, #43 ) ;
#42 = CALENDAR_DATE ( 2008, 24, 6 ) ;
#43 = LOCAL_TIME ( 15, 47, 35.00000000000000000, #44 ) ;
#44 = COORDINATED_UNIVERSAL_TIME_OFFSET ( 5, 30, .AHEAD. ) ;
#45 = APPROVAL_PERSON_ORGANIZATION ( #49, #47, #46 ) ;
#46 = APPROVAL_ROLE ( '' ) ;
#47 = APPROVAL ( #48, 'UNSPECIFIED' ) ;
#48 = APPROVAL_STATUS ( 'not_yet_approved' ) ;
#49 = PERSON_AND_ORGANIZATION ( #55, #54 ) ;
#50 = PRODUCT_DEFINITION_FORMATION_WITH_SPECIFIED_SOURCE ( 'ANY', '', #115, .NOT_KNOWN. ) ;
#51 = CC_DESIGN_PERSON_AND_ORGANIZATION_ASSIGNMENT ( #53, #52, ( #115 ) ) ;
#52 = PERSON_AND_ORGANIZATION_ROLE ( 'design_owner' ) ;
#53 = PERSON_AND_ORGANIZATION ( #55, #54 ) ;
#54 = ORGANIZATION ( 'UNSPECIFIED', 'UNSPECIFIED', '' ) ;
#55 = PERSON ( 'UNSPECIFIED', 'UNSPECIFIED', 'UNSPECIFIED', ('UNSPECIFIED'), ('UNSPECIFIED'), ('UNSPECIFIED') ) ;
#56 = DIRECTION ( 'NONE',  ( 1.000000000000000000, 0.0000000000000000000, 0.0000000000000000000 ) ) ;
#57 = AXIS2_PLACEMENT_3D ( 'NONE', #124, #125, #56 ) ;
#58 = CARTESIAN_POINT ( 'NONE',  ( 0.1000000000000000900, 0.0000000000000000000, 0.0000000000000000000 ) ) ;
#59 = TOROIDAL_SURFACE ( 'NONE', #114, 0.6900000000000000600, 0.03999999999999997300 ) ;
#60 = FACE_OUTER_BOUND ( 'NONE', #11, .T. ) ;
#61 = DIRECTION ( 'NONE',  ( 0.0000000000000000000, 0.0000000000000000000, 1.000000000000000000 ) ) ;
#62 = DIRECTION ( 'NONE',  ( -1.000000000000000000, 0.0000000000000000000, 0.0000000000000000000 ) ) ;
#63 = CARTESIAN_POINT ( 'NONE',  ( 0.1000000000000000900, 0.0000000000000000000, 0.0000000000000000000 ) ) ;
#64 = AXIS2_PLACEMENT_3D ( 'NONE', #63, #62, #61 ) ;
#65 = CIRCLE ( 'NONE', #106, 0.6500000000000000200 ) ;
#66 = APPROVAL_ROLE ( '' ) ;
#67 = APPROVAL ( #68, 'UNSPECIFIED' ) ;
#68 = APPROVAL_STATUS ( 'not_yet_approved' ) ;
#69 = PERSON_AND_ORGANIZATION ( #55, #54 ) ;
#70 = CC_DESIGN_DATE_AND_TIME_ASSIGNMENT ( #72, #71, ( #79 ) ) ;
#71 = DATE_TIME_ROLE ( 'classification_date' ) ;
#72 = DATE_AND_TIME ( #73, #74 ) ;
#73 = CALENDAR_DATE ( 2008, 24, 6 ) ;
#74 = LOCAL_TIME ( 15, 47, 35.00000000000000000, #75 ) ;
#75 = COORDINATED_UNIVERSAL_TIME_OFFSET ( 5, 30, .AHEAD. ) ;
#76 = CC_DESIGN_PERSON_AND_ORGANIZATION_ASSIGNMENT ( #78, #77, ( #79 ) ) ;
#77 = PERSON_AND_ORGANIZATION_ROLE ( 'classification_officer' ) ;
#78 = PERSON_AND_ORGANIZATION ( #55, #54 ) ;
#79 = SECURITY_CLASSIFICATION ( '', '', #80 ) ;
#80 = SECURITY_CLASSIFICATION_LEVEL ( 'unclassified' ) ;
#81 = CC_DESIGN_PERSON_AND_ORGANIZATION_ASSIGNMENT ( #83, #82, ( #50 ) ) ;
#82 = PERSON_AND_ORGANIZATION_ROLE ( 'design_supplier' ) ;
#83 = PERSON_AND_ORGANIZATION ( #55, #54 ) ;
#84 = CC_DESIGN_PERSON_AND_ORGANIZATION_ASSIGNMENT ( #38, #37, ( #50 ) ) ;
#85 = DIRECTION ( 'NONE',  ( 0.0000000000000000000, 0.0000000000000000000, -1.000000000000000000 ) ) ;
#86 = DIRECTION ( 'NONE',  ( 0.0000000000000000000, -1.000000000000000000, 0.0000000000000000000 ) ) ;
#87 = AXIS2_PLACEMENT_3D ( 'NONE', #107, #86, #85 ) ;
#88 = CIRCLE ( 'NONE', #87, 0.03999999999999998000 ) ;
#89 = CIRCLE ( 'NONE', #64, 0.7299999999999999800 ) ;
#90 = DIRECTION ( 'NONE',  ( 0.0000000000000000000, 0.0000000000000000000, 1.000000000000000000 ) ) ;
#91 = DIRECTION ( 'NONE',  ( -1.000000000000000000, 0.0000000000000000000, 0.0000000000000000000 ) ) ;
#92 = CARTESIAN_POINT ( 'NONE',  ( 0.1000000000000000900, 0.0000000000000000000, 0.0000000000000000000 ) ) ;
#93 = AXIS2_PLACEMENT_3D ( 'NONE', #92, #91, #90 ) ;
#94 = TOROIDAL_SURFACE ( 'NONE', #93, 0.6900000000000000600, 0.03999999999999997300 ) ;
#95 = CIRCLE ( 'NONE', #142, 0.03999999999999998000 ) ;
#96 = DIRECTION ( 'NONE',  ( 0.0000000000000000000, 0.0000000000000000000, -1.000000000000000000 ) ) ;
#97 = DIRECTION ( 'NONE',  ( 0.0000000000000000000, -1.000000000000000000, 0.0000000000000000000 ) ) ;
#98 = CARTESIAN_POINT ( 'NONE',  ( 0.1000000000000000900, 0.0000000000000000000, 0.6900000000000000600 ) ) ;
#99 = ADVANCED_BREP_SHAPE_REPRESENTATION ( 'OR-29-VT', ( #21, #57 ), #100 ) ;
#100 =( GEOMETRIC_REPRESENTATION_CONTEXT ( 3 ) GLOBAL_UNCERTAINTY_ASSIGNED_CONTEXT ( ( #101 ) ) GLOBAL_UNIT_ASSIGNED_CONTEXT ( ( #159, #158, #157 ) ) REPRESENTATION_CONTEXT ( 'NONE', 'WORKASPACE' ) );
#101 = UNCERTAINTY_MEASURE_WITH_UNIT (LENGTH_MEASURE( 1.000000000000000100E-005 ), #159, 'distance_accuracy_value', 'NONE');
#102 = ORIENTED_EDGE ( 'NONE', *, *, #17, .F. ) ;
#103 = FACE_OUTER_BOUND ( 'NONE', #4, .T. ) ;
#104 = DIRECTION ( 'NONE',  ( -1.000000000000000000, 0.0000000000000000000, 0.0000000000000000000 ) ) ;
#105 = CARTESIAN_POINT ( 'NONE',  ( 0.1000000000000000900, 0.0000000000000000000, 0.0000000000000000000 ) ) ;
#106 = AXIS2_PLACEMENT_3D ( 'NONE', #105, #104, #165 ) ;
#107 = CARTESIAN_POINT ( 'NONE',  ( 0.1000000000000000900, 0.0000000000000000000, 0.6900000000000000600 ) ) ;
#108 = DIRECTION ( 'NONE',  ( 0.0000000000000000000, 1.000000000000000000, 1.224646799147353200E-016 ) ) ;
#109 = CARTESIAN_POINT ( 'NONE',  ( 0.1000000000000000900, 8.450062914116736900E-017, -0.6900000000000000600 ) ) ;
#110 = DIMENSIONAL_EXPONENTS ( 1.000000000000000000, 0.0000000000000000000, 0.0000000000000000000, 0.0000000000000000000, 0.0000000000000000000, 0.0000000000000000000, 0.0000000000000000000 ) ;
#111 =( LENGTH_UNIT ( ) NAMED_UNIT ( * ) SI_UNIT ( $, .METRE. ) );
#112 = DIRECTION ( 'NONE',  ( 0.0000000000000000000, 0.0000000000000000000, 1.000000000000000000 ) ) ;
#113 = DIRECTION ( 'NONE',  ( -1.000000000000000000, 0.0000000000000000000, 0.0000000000000000000 ) ) ;
#114 = AXIS2_PLACEMENT_3D ( 'NONE', #58, #113, #112 ) ;
#115 = PRODUCT ( 'OR-29-VT', 'OR-29-VT', '', ( #116 ) ) ;
#116 = MECHANICAL_CONTEXT ( 'NONE', #118, 'mechanical' ) ;
#117 = APPLICATION_PROTOCOL_DEFINITION ( 'international standard', 'config_control_design', 1994, #118 ) ;
#118 = APPLICATION_CONTEXT ( 'configuration controlled 3d designs of mechanical parts and assemblies' ) ;
#119 = FACE_OUTER_BOUND ( 'NONE', #32, .T. ) ;
#120 = DIRECTION ( 'NONE',  ( 0.0000000000000000000, 0.0000000000000000000, 1.000000000000000000 ) ) ;
#121 = DIRECTION ( 'NONE',  ( -1.000000000000000000, 0.0000000000000000000, 0.0000000000000000000 ) ) ;
#122 = AXIS2_PLACEMENT_3D ( 'NONE', #130, #121, #120 ) ;
#123 = CIRCLE ( 'NONE', #122, 0.6500000000000000200 ) ;
#124 = CARTESIAN_POINT ( 'NONE',  ( 0.0000000000000000000, 0.0000000000000000000, 0.0000000000000000000 ) ) ;
#125 = DIRECTION ( 'NONE',  ( 0.0000000000000000000, 0.0000000000000000000, 1.000000000000000000 ) ) ;
#126 = SHAPE_DEFINITION_REPRESENTATION ( #187, #99 ) ;
#127 = AXIS2_PLACEMENT_3D ( 'NONE', #98, #97, #96 ) ;
#128 = CIRCLE ( 'NONE', #127, 0.03999999999999998000 ) ;
#129 = CARTESIAN_POINT ( 'NONE',  ( 0.1000000000000000900, 8.450062914116736900E-017, -0.6900000000000000600 ) ) ;
#130 = CARTESIAN_POINT ( 'NONE',  ( 0.1000000000000000900, 0.0000000000000000000, 0.0000000000000000000 ) ) ;
#131 = DIRECTION ( 'NONE',  ( 0.0000000000000000000, 0.0000000000000000000, 1.000000000000000000 ) ) ;
#132 = DIRECTION ( 'NONE',  ( -1.000000000000000000, 0.0000000000000000000, 0.0000000000000000000 ) ) ;
#133 = CARTESIAN_POINT ( 'NONE',  ( 0.1000000000000000900, 0.0000000000000000000, 0.0000000000000000000 ) ) ;
#134 = AXIS2_PLACEMENT_3D ( 'NONE', #133, #132, #131 ) ;
#135 = CARTESIAN_POINT ( 'NONE',  ( 0.1000000000000000900, 0.0000000000000000000, 0.6500000000000000200 ) ) ;
#136 = TOROIDAL_SURFACE ( 'NONE', #134, 0.6900000000000000600, 0.03999999999999997300 ) ;
#137 = FACE_OUTER_BOUND ( 'NONE', #22, .T. ) ;
#138 = CARTESIAN_POINT ( 'NONE',  ( 0.1000000000000000900, 7.960204194457796700E-017, -0.6500000000000000200 ) ) ;
#139 = CARTESIAN_POINT ( 'NONE',  ( 0.1000000000000000900, 8.939921633775677100E-017, -0.7299999999999999800 ) ) ;
#140 = DIRECTION ( 'NONE',  ( 0.0000000000000000000, -1.224646799147351000E-016, 1.000000000000000000 ) ) ;
#141 = DIRECTION ( 'NONE',  ( 0.0000000000000000000, 1.000000000000000000, 1.224646799147353200E-016 ) ) ;
#142 = AXIS2_PLACEMENT_3D ( 'NONE', #129, #141, #140 ) ;
#143 = APPROVAL_DATE_TIME ( #144, #150 ) ;
#144 = DATE_AND_TIME ( #145, #146 ) ;
#145 = CALENDAR_DATE ( 2008, 24, 6 ) ;
#146 = LOCAL_TIME ( 15, 47, 35.00000000000000000, #147 ) ;
#147 = COORDINATED_UNIVERSAL_TIME_OFFSET ( 5, 30, .AHEAD. ) ;
#148 = APPROVAL_PERSON_ORGANIZATION ( #152, #150, #149 ) ;
#149 = APPROVAL_ROLE ( '' ) ;
#150 = APPROVAL ( #151, 'UNSPECIFIED' ) ;
#151 = APPROVAL_STATUS ( 'not_yet_approved' ) ;
#152 = PERSON_AND_ORGANIZATION ( #55, #54 ) ;
#153 = PRODUCT_DEFINITION ( 'UNKNOWN', '', #50, #154 ) ;
#154 = DESIGN_CONTEXT ( 'detailed design', #156, 'design' ) ;
#155 = APPLICATION_PROTOCOL_DEFINITION ( 'international standard', 'config_control_design', 1994, #156 ) ;
#156 = APPLICATION_CONTEXT ( 'configuration controlled 3d designs of mechanical parts and assemblies' ) ;
#157 =( NAMED_UNIT ( * ) SI_UNIT ( $, .STERADIAN. ) SOLID_ANGLE_UNIT ( ) );
#158 =( NAMED_UNIT ( * ) PLANE_ANGLE_UNIT ( ) SI_UNIT ( $, .RADIAN. ) );
#159 =( CONVERSION_BASED_UNIT ( 'INCH', #160 ) LENGTH_UNIT ( ) NAMED_UNIT ( #110 ) );
#160 = LENGTH_MEASURE_WITH_UNIT ( LENGTH_MEASURE( 0.02539999999999999900 ), #111 );
#161 = DIRECTION ( 'NONE',  ( 0.0000000000000000000, 0.0000000000000000000, 1.000000000000000000 ) ) ;
#162 = DIRECTION ( 'NONE',  ( -1.000000000000000000, 0.0000000000000000000, 0.0000000000000000000 ) ) ;
#163 = CARTESIAN_POINT ( 'NONE',  ( 0.1000000000000000900, 0.0000000000000000000, 0.0000000000000000000 ) ) ;
#164 = AXIS2_PLACEMENT_3D ( 'NONE', #163, #162, #161 ) ;
#165 = DIRECTION ( 'NONE',  ( 0.0000000000000000000, 0.0000000000000000000, 1.000000000000000000 ) ) ;
#166 = CC_DESIGN_DATE_AND_TIME_ASSIGNMENT ( #168, #167, ( #153 ) ) ;
#167 = DATE_TIME_ROLE ( 'creation_date' ) ;
#168 = DATE_AND_TIME ( #169, #170 ) ;
#169 = CALENDAR_DATE ( 2008, 24, 6 ) ;
#170 = LOCAL_TIME ( 15, 47, 35.00000000000000000, #171 ) ;
#171 = COORDINATED_UNIVERSAL_TIME_OFFSET ( 5, 30, .AHEAD. ) ;
#172 = CC_DESIGN_PERSON_AND_ORGANIZATION_ASSIGNMENT ( #174, #173, ( #153 ) ) ;
#173 = PERSON_AND_ORGANIZATION_ROLE ( 'creator' ) ;
#174 = PERSON_AND_ORGANIZATION ( #55, #54 ) ;
#175 = CC_DESIGN_APPROVAL ( #150, ( #153 ) ) ;
#176 = DIRECTION ( 'NONE',  ( 0.0000000000000000000, 0.0000000000000000000, 1.000000000000000000 ) ) ;
#177 = DIRECTION ( 'NONE',  ( -1.000000000000000000, 0.0000000000000000000, 0.0000000000000000000 ) ) ;
#178 = CARTESIAN_POINT ( 'NONE',  ( 0.1000000000000000900, 0.0000000000000000000, 0.0000000000000000000 ) ) ;
#179 = AXIS2_PLACEMENT_3D ( 'NONE', #178, #177, #176 ) ;
#180 = CIRCLE ( 'NONE', #179, 0.7299999999999999800 ) ;
#181 = CARTESIAN_POINT ( 'NONE',  ( 0.1000000000000000900, 0.0000000000000000000, 0.7299999999999999800 ) ) ;
#182 = TOROIDAL_SURFACE ( 'NONE', #164, 0.6900000000000000600, 0.03999999999999997300 ) ;
#183 = DIRECTION ( 'NONE',  ( 0.0000000000000000000, -1.224646799147351000E-016, 1.000000000000000000 ) ) ;
#184 = AXIS2_PLACEMENT_3D ( 'NONE', #109, #108, #183 ) ;
#185 = CIRCLE ( 'NONE', #184, 0.03999999999999998000 ) ;
#186 = ADVANCED_FACE ( 'NONE', ( #60 ), #59, .T. ) ;
#187 = PRODUCT_DEFINITION_SHAPE ( 'NONE', 'NONE',  #153 ) ;
#188 = PRODUCT_RELATED_PRODUCT_CATEGORY ( 'detail', '', ( #115 ) ) ;
#189 = CC_DESIGN_SECURITY_CLASSIFICATION ( #79, ( #50 ) ) ;
#190 = CC_DESIGN_APPROVAL ( #67, ( #79 ) ) ;
#191 = APPROVAL_DATE_TIME ( #192, #67 ) ;
#192 = DATE_AND_TIME ( #193, #194 ) ;
#193 = CALENDAR_DATE ( 2008, 24, 6 ) ;
#194 = LOCAL_TIME ( 15, 47, 35.00000000000000000, #195 ) ;
#195 = COORDINATED_UNIVERSAL_TIME_OFFSET ( 5, 30, .AHEAD. ) ;
#196 = APPROVAL_PERSON_ORGANIZATION ( #69, #67, #66 ) ;
ENDSEC;
END-ISO-10303-21;
