ISO-10303-21;
HEADER;
FILE_DESCRIPTION (( 'STEP AP203' ),
    '1' );
FILE_NAME ('OR-34-SI.STEP',
    '2006-03-03T07:44:26',
    ( 'bay06' ),
    ( '' ),
    'SwSTEP 2.0',
    'SolidWorks 2008',
    '' );
FILE_SCHEMA (( 'CONFIG_CONTROL_DESIGN' ));
ENDSEC;

DATA;
#1 = ORIENTED_EDGE ( 'NONE', *, *, #49, .T. ) ;
#2 = ORIENTED_EDGE ( 'NONE', *, *, #17, .T. ) ;
#3 = ORIENTED_EDGE ( 'NONE', *, *, #51, .F. ) ;
#4 = CLOSED_SHELL ( 'NONE', ( #15, #16, #39, #45 ) ) ;
#5 = MANIFOLD_SOLID_BREP ( 'NONE', #4 ) ;
#6 = EDGE_LOOP ( 'NONE', ( #9, #32, #22, #23 ) ) ;
#7 = VERTEX_POINT ( 'NONE', #161 ) ;
#8 = VERTEX_POINT ( 'NONE', #92 ) ;
#9 = ORIENTED_EDGE ( 'NONE', *, *, #10, .F. ) ;
#10 = EDGE_CURVE ( 'NONE', #7, #8, #156, .T. ) ;
#11 = APPROVAL_STATUS ( 'not_yet_approved' ) ;
#12 = PERSON_AND_ORGANIZATION ( #84, #115 ) ;
#13 = APPROVAL_DATE_TIME ( #42, #35 ) ;
#14 = EDGE_LOOP ( 'NONE', ( #24, #25, #26, #41 ) ) ;
#15 = ADVANCED_FACE ( 'NONE', ( #153 ), #174, .T. ) ;
#16 = ADVANCED_FACE ( 'NONE', ( #176 ), #175, .T. ) ;
#17 = EDGE_CURVE ( 'NONE', #8, #19, #134, .T. ) ;
#18 = EDGE_CURVE ( 'NONE', #21, #19, #160, .T. ) ;
#19 = VERTEX_POINT ( 'NONE', #147 ) ;
#20 = EDGE_CURVE ( 'NONE', #21, #7, #146, .T. ) ;
#21 = VERTEX_POINT ( 'NONE', #95 ) ;
#22 = ORIENTED_EDGE ( 'NONE', *, *, #18, .T. ) ;
#23 = ORIENTED_EDGE ( 'NONE', *, *, #17, .F. ) ;
#24 = ORIENTED_EDGE ( 'NONE', *, *, #18, .F. ) ;
#25 = ORIENTED_EDGE ( 'NONE', *, *, #20, .T. ) ;
#26 = ORIENTED_EDGE ( 'NONE', *, *, #10, .T. ) ;
#27 = EDGE_CURVE ( 'NONE', #7, #21, #144, .T. ) ;
#28 = PRODUCT_DEFINITION_FORMATION_WITH_SPECIFIED_SOURCE ( 'ANY', '', #85, .NOT_KNOWN. ) ;
#29 = APPROVAL_STATUS ( 'not_yet_approved' ) ;
#30 = PERSON_AND_ORGANIZATION ( #84, #115 ) ;
#31 = COORDINATED_UNIVERSAL_TIME_OFFSET ( 5, 30, .AHEAD. ) ;
#32 = ORIENTED_EDGE ( 'NONE', *, *, #27, .T. ) ;
#33 = APPROVAL_PERSON_ORGANIZATION ( #30, #35, #34 ) ;
#34 = APPROVAL_ROLE ( '' ) ;
#35 = APPROVAL ( #29, 'UNSPECIFIED' ) ;
#36 = EDGE_LOOP ( 'NONE', ( #48, #47, #38, #37 ) ) ;
#37 = ORIENTED_EDGE ( 'NONE', *, *, #51, .T. ) ;
#38 = ORIENTED_EDGE ( 'NONE', *, *, #40, .T. ) ;
#39 = ADVANCED_FACE ( 'NONE', ( #145 ), #138, .T. ) ;
#40 = EDGE_CURVE ( 'NONE', #19, #8, #163, .T. ) ;
#41 = ORIENTED_EDGE ( 'NONE', *, *, #40, .F. ) ;
#42 = DATE_AND_TIME ( #43, #44 ) ;
#43 = CALENDAR_DATE ( 2006, 3, 3 ) ;
#44 = LOCAL_TIME ( 13, 14, 26.00000000000000000, #31 ) ;
#45 = ADVANCED_FACE ( 'NONE', ( #170 ), #169, .T. ) ;
#46 = EDGE_LOOP ( 'NONE', ( #50, #3, #2, #1 ) ) ;
#47 = ORIENTED_EDGE ( 'NONE', *, *, #49, .F. ) ;
#48 = ORIENTED_EDGE ( 'NONE', *, *, #20, .F. ) ;
#49 = EDGE_CURVE ( 'NONE', #19, #21, #130, .T. ) ;
#50 = ORIENTED_EDGE ( 'NONE', *, *, #27, .F. ) ;
#51 = EDGE_CURVE ( 'NONE', #8, #7, #121, .T. ) ;
#52 = CC_DESIGN_PERSON_AND_ORGANIZATION_ASSIGNMENT ( #178, #177, ( #28 ) ) ;
#53 = APPROVAL_ROLE ( '' ) ;
#54 = APPROVAL ( #11, 'UNSPECIFIED' ) ;
#55 = CC_DESIGN_APPROVAL ( #54, ( #191 ) ) ;
#56 = CALENDAR_DATE ( 2006, 3, 3 ) ;
#57 = DATE_AND_TIME ( #56, #58 ) ;
#58 = LOCAL_TIME ( 13, 14, 26.00000000000000000, #61 ) ;
#59 = APPROVAL_PERSON_ORGANIZATION ( #12, #54, #53 ) ;
#60 = APPROVAL_DATE_TIME ( #57, #54 ) ;
#61 = COORDINATED_UNIVERSAL_TIME_OFFSET ( 5, 30, .AHEAD. ) ;
#62 = CC_DESIGN_APPROVAL ( #35, ( #28 ) ) ;
#63 = CC_DESIGN_DATE_AND_TIME_ASSIGNMENT ( #65, #64, ( #108 ) ) ;
#64 = DATE_TIME_ROLE ( 'creation_date' ) ;
#65 = DATE_AND_TIME ( #66, #67 ) ;
#66 = CALENDAR_DATE ( 2006, 3, 3 ) ;
#67 = LOCAL_TIME ( 13, 14, 26.00000000000000000, #68 ) ;
#68 = COORDINATED_UNIVERSAL_TIME_OFFSET ( 5, 30, .AHEAD. ) ;
#69 = CC_DESIGN_PERSON_AND_ORGANIZATION_ASSIGNMENT ( #71, #70, ( #108 ) ) ;
#70 = PERSON_AND_ORGANIZATION_ROLE ( 'creator' ) ;
#71 = PERSON_AND_ORGANIZATION ( #84, #115 ) ;
#72 = CC_DESIGN_APPROVAL ( #80, ( #108 ) ) ;
#73 = APPROVAL_DATE_TIME ( #74, #80 ) ;
#74 = DATE_AND_TIME ( #75, #76 ) ;
#75 = CALENDAR_DATE ( 2006, 3, 3 ) ;
#76 = LOCAL_TIME ( 13, 14, 26.00000000000000000, #77 ) ;
#77 = COORDINATED_UNIVERSAL_TIME_OFFSET ( 5, 30, .AHEAD. ) ;
#78 = APPROVAL_PERSON_ORGANIZATION ( #82, #80, #79 ) ;
#79 = APPROVAL_ROLE ( '' ) ;
#80 = APPROVAL ( #81, 'UNSPECIFIED' ) ;
#81 = APPROVAL_STATUS ( 'not_yet_approved' ) ;
#82 = PERSON_AND_ORGANIZATION ( #84, #115 ) ;
#83 = DIRECTION ( 'NONE',  ( 0.0000000000000000000, -1.224646799147353000E-016, 1.000000000000000000 ) ) ;
#84 = PERSON ( 'UNSPECIFIED', 'UNSPECIFIED', 'UNSPECIFIED', ('UNSPECIFIED'), ('UNSPECIFIED'), ('UNSPECIFIED') ) ;
#85 = PRODUCT ( 'OR-34-SI', 'OR-34-SI', '', ( #86 ) ) ;
#86 = MECHANICAL_CONTEXT ( 'NONE', #101, 'mechanical' ) ;
#87 = APPLICATION_PROTOCOL_DEFINITION ( 'international standard', 'config_control_design', 1994, #101 ) ;
#88 = DIRECTION ( 'NONE',  ( -1.000000000000000000, -0.0000000000000000000, -0.0000000000000000000 ) ) ;
#89 = CARTESIAN_POINT ( 'NONE',  ( 0.1000000000000000600, 0.0000000000000000000, 0.0000000000000000000 ) ) ;
#90 = AXIS2_PLACEMENT_3D ( 'NONE', #89, #88, #96 ) ;
#91 = CARTESIAN_POINT ( 'NONE',  ( 0.1000000000000000600, 5.817072295949927200E-017, -0.4749999999999999800 ) ) ;
#92 = CARTESIAN_POINT ( 'NONE',  ( 0.1000000000000000600, 5.327213576290986400E-017, -0.4350000000000000000 ) ) ;
#93 = AXIS2_PLACEMENT_3D ( 'NONE', #98, #100, #99 ) ;
#94 = DIRECTION ( 'NONE',  ( -0.0000000000000000000, 1.000000000000000000, 1.224646799147353200E-016 ) ) ;
#95 = CARTESIAN_POINT ( 'NONE',  ( 0.1000000000000000600, 0.0000000000000000000, 0.5150000000000000100 ) ) ;
#96 = DIRECTION ( 'NONE',  ( 0.0000000000000000000, 0.0000000000000000000, 1.000000000000000000 ) ) ;
#97 = AXIS2_PLACEMENT_3D ( 'NONE', #91, #94, #83 ) ;
#98 = CARTESIAN_POINT ( 'NONE',  ( 0.0000000000000000000, 0.0000000000000000000, 0.0000000000000000000 ) ) ;
#99 = DIRECTION ( 'NONE',  ( 1.000000000000000000, 0.0000000000000000000, 0.0000000000000000000 ) ) ;
#100 = DIRECTION ( 'NONE',  ( 0.0000000000000000000, 0.0000000000000000000, 1.000000000000000000 ) ) ;
#101 = APPLICATION_CONTEXT ( 'configuration controlled 3d designs of mechanical parts and assemblies' ) ;
#102 = ADVANCED_BREP_SHAPE_REPRESENTATION ( 'OR-34-SI', ( #5, #93 ), #103 ) ;
#103 =( GEOMETRIC_REPRESENTATION_CONTEXT ( 3 ) GLOBAL_UNCERTAINTY_ASSIGNED_CONTEXT ( ( #104 ) ) GLOBAL_UNIT_ASSIGNED_CONTEXT ( ( #150, #149, #105 ) ) REPRESENTATION_CONTEXT ( 'NONE', 'WORKASPACE' ) );
#104 = UNCERTAINTY_MEASURE_WITH_UNIT (LENGTH_MEASURE( 1.000000000000000100E-005 ), #150, 'distance_accuracy_value', 'NONE');
#105 =( NAMED_UNIT ( * ) SI_UNIT ( $, .STERADIAN. ) SOLID_ANGLE_UNIT ( ) );
#106 = CARTESIAN_POINT ( 'NONE',  ( 0.1000000000000000600, 0.0000000000000000000, 0.0000000000000000000 ) ) ;
#107 = AXIS2_PLACEMENT_3D ( 'NONE', #106, #155, #154 ) ;
#108 = PRODUCT_DEFINITION ( 'UNKNOWN', '', #28, #109 ) ;
#109 = DESIGN_CONTEXT ( 'detailed design', #111, 'design' ) ;
#110 = APPLICATION_PROTOCOL_DEFINITION ( 'international standard', 'config_control_design', 1994, #111 ) ;
#111 = APPLICATION_CONTEXT ( 'configuration controlled 3d designs of mechanical parts and assemblies' ) ;
#112 = CC_DESIGN_PERSON_AND_ORGANIZATION_ASSIGNMENT ( #114, #113, ( #85 ) ) ;
#113 = PERSON_AND_ORGANIZATION_ROLE ( 'design_owner' ) ;
#114 = PERSON_AND_ORGANIZATION ( #84, #115 ) ;
#115 = ORGANIZATION ( 'UNSPECIFIED', 'UNSPECIFIED', '' ) ;
#116 =( LENGTH_UNIT ( ) NAMED_UNIT ( * ) SI_UNIT ( $, .METRE. ) );
#117 = DIRECTION ( 'NONE',  ( 0.0000000000000000000, -1.224646799147353000E-016, 1.000000000000000000 ) ) ;
#118 = DIRECTION ( 'NONE',  ( -0.0000000000000000000, 1.000000000000000000, 1.224646799147353200E-016 ) ) ;
#119 = CARTESIAN_POINT ( 'NONE',  ( 0.1000000000000000600, 5.817072295949927200E-017, -0.4749999999999999800 ) ) ;
#120 = AXIS2_PLACEMENT_3D ( 'NONE', #119, #118, #117 ) ;
#121 = CIRCLE ( 'NONE', #120, 0.03999999999999998000 ) ;
#122 = DIRECTION ( 'NONE',  ( 0.0000000000000000000, 0.0000000000000000000, 1.000000000000000000 ) ) ;
#123 = DIRECTION ( 'NONE',  ( -1.000000000000000000, -0.0000000000000000000, -0.0000000000000000000 ) ) ;
#124 = DIRECTION ( 'NONE',  ( 0.0000000000000000000, 0.0000000000000000000, -1.000000000000000000 ) ) ;
#125 = DIRECTION ( 'NONE',  ( 0.0000000000000000000, -1.000000000000000000, 0.0000000000000000000 ) ) ;
#126 = CARTESIAN_POINT ( 'NONE',  ( 0.1000000000000000600, 0.0000000000000000000, 0.4749999999999999800 ) ) ;
#127 = AXIS2_PLACEMENT_3D ( 'NONE', #126, #125, #124 ) ;
#128 = DIRECTION ( 'NONE',  ( 0.0000000000000000000, 0.0000000000000000000, 1.000000000000000000 ) ) ;
#129 = DIRECTION ( 'NONE',  ( -1.000000000000000000, -0.0000000000000000000, -0.0000000000000000000 ) ) ;
#130 = CIRCLE ( 'NONE', #127, 0.03999999999999998000 ) ;
#131 = DIRECTION ( 'NONE',  ( 0.0000000000000000000, 0.0000000000000000000, 1.000000000000000000 ) ) ;
#132 = CARTESIAN_POINT ( 'NONE',  ( 0.1000000000000000600, 0.0000000000000000000, 0.0000000000000000000 ) ) ;
#133 = AXIS2_PLACEMENT_3D ( 'NONE', #132, #123, #122 ) ;
#134 = CIRCLE ( 'NONE', #133, 0.4350000000000000000 ) ;
#135 = DIRECTION ( 'NONE',  ( -1.000000000000000000, -0.0000000000000000000, -0.0000000000000000000 ) ) ;
#136 = CARTESIAN_POINT ( 'NONE',  ( 0.1000000000000000600, 0.0000000000000000000, 0.0000000000000000000 ) ) ;
#137 = AXIS2_PLACEMENT_3D ( 'NONE', #136, #135, #131 ) ;
#138 = TOROIDAL_SURFACE ( 'NONE', #166, 0.4749999999999999800, 0.04000000000000000100 ) ;
#139 = CARTESIAN_POINT ( 'NONE',  ( 0.1000000000000000600, 0.0000000000000000000, 0.0000000000000000000 ) ) ;
#140 = DIRECTION ( 'NONE',  ( 0.0000000000000000000, 0.0000000000000000000, 1.000000000000000000 ) ) ;
#141 = DIRECTION ( 'NONE',  ( -1.000000000000000000, -0.0000000000000000000, -0.0000000000000000000 ) ) ;
#142 = CARTESIAN_POINT ( 'NONE',  ( 0.1000000000000000600, 0.0000000000000000000, 0.0000000000000000000 ) ) ;
#143 = AXIS2_PLACEMENT_3D ( 'NONE', #142, #141, #140 ) ;
#144 = CIRCLE ( 'NONE', #143, 0.5150000000000000100 ) ;
#145 = FACE_OUTER_BOUND ( 'NONE', #36, .T. ) ;
#146 = CIRCLE ( 'NONE', #90, 0.5150000000000000100 ) ;
#147 = CARTESIAN_POINT ( 'NONE',  ( 0.1000000000000000600, 0.0000000000000000000, 0.4350000000000000000 ) ) ;
#148 = DIRECTION ( 'NONE',  ( 0.0000000000000000000, 0.0000000000000000000, -1.000000000000000000 ) ) ;
#149 =( NAMED_UNIT ( * ) PLANE_ANGLE_UNIT ( ) SI_UNIT ( $, .RADIAN. ) );
#150 =( CONVERSION_BASED_UNIT ( 'INCH', #151 ) LENGTH_UNIT ( ) NAMED_UNIT ( #152 ) );
#151 = LENGTH_MEASURE_WITH_UNIT ( LENGTH_MEASURE( 0.02539999999999999900 ), #116 );
#152 = DIMENSIONAL_EXPONENTS ( 1.000000000000000000, 0.0000000000000000000, 0.0000000000000000000, 0.0000000000000000000, 0.0000000000000000000, 0.0000000000000000000, 0.0000000000000000000 ) ;
#153 = FACE_OUTER_BOUND ( 'NONE', #6, .T. ) ;
#154 = DIRECTION ( 'NONE',  ( 0.0000000000000000000, 0.0000000000000000000, 1.000000000000000000 ) ) ;
#155 = DIRECTION ( 'NONE',  ( -1.000000000000000000, -0.0000000000000000000, -0.0000000000000000000 ) ) ;
#156 = CIRCLE ( 'NONE', #97, 0.03999999999999998000 ) ;
#157 = DIRECTION ( 'NONE',  ( 0.0000000000000000000, -1.000000000000000000, 0.0000000000000000000 ) ) ;
#158 = CARTESIAN_POINT ( 'NONE',  ( 0.1000000000000000600, 0.0000000000000000000, 0.4749999999999999800 ) ) ;
#159 = AXIS2_PLACEMENT_3D ( 'NONE', #158, #157, #148 ) ;
#160 = CIRCLE ( 'NONE', #159, 0.03999999999999998000 ) ;
#161 = CARTESIAN_POINT ( 'NONE',  ( 0.1000000000000000600, 6.306931015608868600E-017, -0.5150000000000000100 ) ) ;
#162 = CARTESIAN_POINT ( 'NONE',  ( 0.1000000000000000600, 0.0000000000000000000, 0.0000000000000000000 ) ) ;
#163 = CIRCLE ( 'NONE', #173, 0.4350000000000000000 ) ;
#164 = DIRECTION ( 'NONE',  ( 0.0000000000000000000, 0.0000000000000000000, 1.000000000000000000 ) ) ;
#165 = DIRECTION ( 'NONE',  ( -1.000000000000000000, -0.0000000000000000000, -0.0000000000000000000 ) ) ;
#166 = AXIS2_PLACEMENT_3D ( 'NONE', #139, #165, #164 ) ;
#167 = CARTESIAN_POINT ( 'NONE',  ( 0.1000000000000000600, 0.0000000000000000000, 0.0000000000000000000 ) ) ;
#168 = AXIS2_PLACEMENT_3D ( 'NONE', #167, #129, #128 ) ;
#169 = TOROIDAL_SURFACE ( 'NONE', #168, 0.4749999999999999800, 0.04000000000000000100 ) ;
#170 = FACE_OUTER_BOUND ( 'NONE', #46, .T. ) ;
#171 = DIRECTION ( 'NONE',  ( 0.0000000000000000000, 0.0000000000000000000, 1.000000000000000000 ) ) ;
#172 = DIRECTION ( 'NONE',  ( -1.000000000000000000, -0.0000000000000000000, -0.0000000000000000000 ) ) ;
#173 = AXIS2_PLACEMENT_3D ( 'NONE', #162, #172, #171 ) ;
#174 = TOROIDAL_SURFACE ( 'NONE', #107, 0.4749999999999999800, 0.04000000000000000100 ) ;
#175 = TOROIDAL_SURFACE ( 'NONE', #137, 0.4749999999999999800, 0.04000000000000000100 ) ;
#176 = FACE_OUTER_BOUND ( 'NONE', #14, .T. ) ;
#177 = PERSON_AND_ORGANIZATION_ROLE ( 'creator' ) ;
#178 = PERSON_AND_ORGANIZATION ( #84, #115 ) ;
#179 = CC_DESIGN_PERSON_AND_ORGANIZATION_ASSIGNMENT ( #192, #181, ( #28 ) ) ;
#180 = SECURITY_CLASSIFICATION_LEVEL ( 'unclassified' ) ;
#181 = PERSON_AND_ORGANIZATION_ROLE ( 'design_supplier' ) ;
#182 = CC_DESIGN_DATE_AND_TIME_ASSIGNMENT ( #184, #183, ( #191 ) ) ;
#183 = DATE_TIME_ROLE ( 'classification_date' ) ;
#184 = DATE_AND_TIME ( #185, #186 ) ;
#185 = CALENDAR_DATE ( 2006, 3, 3 ) ;
#186 = LOCAL_TIME ( 13, 14, 26.00000000000000000, #187 ) ;
#187 = COORDINATED_UNIVERSAL_TIME_OFFSET ( 5, 30, .AHEAD. ) ;
#188 = CC_DESIGN_PERSON_AND_ORGANIZATION_ASSIGNMENT ( #190, #189, ( #191 ) ) ;
#189 = PERSON_AND_ORGANIZATION_ROLE ( 'classification_officer' ) ;
#190 = PERSON_AND_ORGANIZATION ( #84, #115 ) ;
#191 = SECURITY_CLASSIFICATION ( '', '', #180 ) ;
#192 = PERSON_AND_ORGANIZATION ( #84, #115 ) ;
#193 = PRODUCT_RELATED_PRODUCT_CATEGORY ( 'detail', '', ( #85 ) ) ;
#194 = PRODUCT_DEFINITION_SHAPE ( 'NONE', 'NONE',  #108 ) ;
#195 = SHAPE_DEFINITION_REPRESENTATION ( #194, #102 ) ;
#196 = CC_DESIGN_SECURITY_CLASSIFICATION ( #191, ( #28 ) ) ;
ENDSEC;
END-ISO-10303-21;
