ISO-10303-21;
HEADER;
FILE_DESCRIPTION (( 'STEP AP203' ),
    '1' );
FILE_NAME ('OR-34-VT.STEP',
    '2008-08-20T09:58:03',
    ( 'BSI05' ),
    ( 'BAYSTATE' ),
    'SwSTEP 2.0',
    'SolidWorks 2007',
    '' );
FILE_SCHEMA (( 'CONFIG_CONTROL_DESIGN' ));
ENDSEC;

DATA;
#1 = MANIFOLD_SOLID_BREP ( 'NONE', #6 ) ;
#2 = ORIENTED_EDGE ( 'NONE', *, *, #34, .F. ) ;
#3 = ORIENTED_EDGE ( 'NONE', *, *, #12, .T. ) ;
#4 = EDGE_LOOP ( 'NONE', ( #17, #18, #23, #19 ) ) ;
#5 = ORIENTED_EDGE ( 'NONE', *, *, #12, .F. ) ;
#6 = CLOSED_SHELL ( 'NONE', ( #38, #37, #26, #15 ) ) ;
#7 = EDGE_CURVE ( 'NONE', #21, #27, #92, .T. ) ;
#8 = ORIENTED_EDGE ( 'NONE', *, *, #11, .F. ) ;
#9 = VERTEX_POINT ( 'NONE', #57 ) ;
#10 = EDGE_LOOP ( 'NONE', ( #8, #28, #29, #5 ) ) ;
#11 = EDGE_CURVE ( 'NONE', #22, #9, #73, .T. ) ;
#12 = EDGE_CURVE ( 'NONE', #9, #27, #81, .T. ) ;
#13 = ORIENTED_EDGE ( 'NONE', *, *, #32, .T. ) ;
#14 = EDGE_CURVE ( 'NONE', #22, #21, #54, .T. ) ;
#15 = ADVANCED_FACE ( 'NONE', ( #55 ), #94, .T. ) ;
#16 = ORIENTED_EDGE ( 'NONE', *, *, #14, .F. ) ;
#17 = ORIENTED_EDGE ( 'NONE', *, *, #7, .F. ) ;
#18 = ORIENTED_EDGE ( 'NONE', *, *, #24, .T. ) ;
#19 = ORIENTED_EDGE ( 'NONE', *, *, #20, .F. ) ;
#20 = EDGE_CURVE ( 'NONE', #27, #9, #91, .T. ) ;
#21 = VERTEX_POINT ( 'NONE', #84 ) ;
#22 = VERTEX_POINT ( 'NONE', #82 ) ;
#23 = ORIENTED_EDGE ( 'NONE', *, *, #11, .T. ) ;
#24 = EDGE_CURVE ( 'NONE', #21, #22, #71, .T. ) ;
#25 = EDGE_LOOP ( 'NONE', ( #30, #31, #36, #33 ) ) ;
#26 = ADVANCED_FACE ( 'NONE', ( #72 ), #43, .T. ) ;
#27 = VERTEX_POINT ( 'NONE', #39 ) ;
#28 = ORIENTED_EDGE ( 'NONE', *, *, #14, .T. ) ;
#29 = ORIENTED_EDGE ( 'NONE', *, *, #7, .T. ) ;
#30 = ORIENTED_EDGE ( 'NONE', *, *, #24, .F. ) ;
#31 = ORIENTED_EDGE ( 'NONE', *, *, #32, .F. ) ;
#32 = EDGE_CURVE ( 'NONE', #27, #21, #65, .T. ) ;
#33 = ORIENTED_EDGE ( 'NONE', *, *, #34, .T. ) ;
#34 = EDGE_CURVE ( 'NONE', #9, #22, #47, .T. ) ;
#35 = EDGE_LOOP ( 'NONE', ( #16, #2, #3, #13 ) ) ;
#36 = ORIENTED_EDGE ( 'NONE', *, *, #20, .T. ) ;
#37 = ADVANCED_FACE ( 'NONE', ( #76 ), #74, .T. ) ;
#38 = ADVANCED_FACE ( 'NONE', ( #149 ), #172, .T. ) ;
#39 = CARTESIAN_POINT ( 'NONE',  ( 0.1000000000000000700, 0.0000000000000000000, 0.4350000000000000000 ) ) ;
#40 = DIRECTION ( 'NONE',  ( 0.0000000000000000000, 0.0000000000000000000, 1.000000000000000000 ) ) ;
#41 = DIRECTION ( 'NONE',  ( -1.000000000000000000, 0.0000000000000000000, 0.0000000000000000000 ) ) ;
#42 = AXIS2_PLACEMENT_3D ( 'NONE', #66, #41, #40 ) ;
#43 = TOROIDAL_SURFACE ( 'NONE', #42, 0.4749999999999999800, 0.04000000000000000100 ) ;
#44 = CARTESIAN_POINT ( 'NONE',  ( 0.1000000000000000700, 0.0000000000000000000, 0.4749999999999999800 ) ) ;
#45 = CARTESIAN_POINT ( 'NONE',  ( 0.1000000000000000700, 5.817072295949927200E-017, -0.4749999999999999800 ) ) ;
#46 = AXIS2_PLACEMENT_3D ( 'NONE', #45, #78, #77 ) ;
#47 = CIRCLE ( 'NONE', #46, 0.03999999999999998000 ) ;
#48 = DIRECTION ( 'NONE',  ( 0.0000000000000000000, 0.0000000000000000000, -1.000000000000000000 ) ) ;
#49 = DIRECTION ( 'NONE',  ( 0.0000000000000000000, -1.224646799147353000E-016, 1.000000000000000000 ) ) ;
#50 = DIRECTION ( 'NONE',  ( 0.0000000000000000000, 1.000000000000000000, 1.224646799147353200E-016 ) ) ;
#51 = DIRECTION ( 'NONE',  ( -1.000000000000000000, 0.0000000000000000000, 0.0000000000000000000 ) ) ;
#52 = CARTESIAN_POINT ( 'NONE',  ( 0.1000000000000000700, 0.0000000000000000000, 0.0000000000000000000 ) ) ;
#53 = AXIS2_PLACEMENT_3D ( 'NONE', #52, #51, #60 ) ;
#54 = CIRCLE ( 'NONE', #53, 0.5150000000000000100 ) ;
#55 = FACE_OUTER_BOUND ( 'NONE', #35, .T. ) ;
#56 = DIRECTION ( 'NONE',  ( 0.0000000000000000000, -1.000000000000000000, 0.0000000000000000000 ) ) ;
#57 = CARTESIAN_POINT ( 'NONE',  ( 0.1000000000000000700, 5.327213576290986400E-017, -0.4350000000000000000 ) ) ;
#58 = DIRECTION ( 'NONE',  ( 0.0000000000000000000, 0.0000000000000000000, -1.000000000000000000 ) ) ;
#59 = CARTESIAN_POINT ( 'NONE',  ( 0.1000000000000000700, 0.0000000000000000000, 0.0000000000000000000 ) ) ;
#60 = DIRECTION ( 'NONE',  ( 0.0000000000000000000, 0.0000000000000000000, 1.000000000000000000 ) ) ;
#61 = AXIS2_PLACEMENT_3D ( 'NONE', #44, #56, #58 ) ;
#62 = DIRECTION ( 'NONE',  ( 0.0000000000000000000, -1.000000000000000000, 0.0000000000000000000 ) ) ;
#63 = CARTESIAN_POINT ( 'NONE',  ( 0.1000000000000000700, 0.0000000000000000000, 0.4749999999999999800 ) ) ;
#64 = AXIS2_PLACEMENT_3D ( 'NONE', #63, #62, #48 ) ;
#65 = CIRCLE ( 'NONE', #64, 0.03999999999999998000 ) ;
#66 = CARTESIAN_POINT ( 'NONE',  ( 0.1000000000000000700, 0.0000000000000000000, 0.0000000000000000000 ) ) ;
#67 = DIRECTION ( 'NONE',  ( 0.0000000000000000000, 0.0000000000000000000, 1.000000000000000000 ) ) ;
#68 = DIRECTION ( 'NONE',  ( -1.000000000000000000, 0.0000000000000000000, 0.0000000000000000000 ) ) ;
#69 = CARTESIAN_POINT ( 'NONE',  ( 0.1000000000000000700, 0.0000000000000000000, 0.0000000000000000000 ) ) ;
#70 = AXIS2_PLACEMENT_3D ( 'NONE', #69, #68, #67 ) ;
#71 = CIRCLE ( 'NONE', #70, 0.5150000000000000100 ) ;
#72 = FACE_OUTER_BOUND ( 'NONE', #25, .T. ) ;
#73 = CIRCLE ( 'NONE', #96, 0.03999999999999998000 ) ;
#74 = TOROIDAL_SURFACE ( 'NONE', #75, 0.4749999999999999800, 0.04000000000000000100 ) ;
#75 = AXIS2_PLACEMENT_3D ( 'NONE', #148, #158, #107 ) ;
#76 = FACE_OUTER_BOUND ( 'NONE', #4, .T. ) ;
#77 = DIRECTION ( 'NONE',  ( 0.0000000000000000000, -1.224646799147353000E-016, 1.000000000000000000 ) ) ;
#78 = DIRECTION ( 'NONE',  ( 0.0000000000000000000, 1.000000000000000000, 1.224646799147353200E-016 ) ) ;
#79 = DIRECTION ( 'NONE',  ( -1.000000000000000000, 0.0000000000000000000, 0.0000000000000000000 ) ) ;
#80 = AXIS2_PLACEMENT_3D ( 'NONE', #97, #79, #83 ) ;
#81 = CIRCLE ( 'NONE', #80, 0.4350000000000000000 ) ;
#82 = CARTESIAN_POINT ( 'NONE',  ( 0.1000000000000000700, 6.306931015608868600E-017, -0.5150000000000000100 ) ) ;
#83 = DIRECTION ( 'NONE',  ( 0.0000000000000000000, 0.0000000000000000000, 1.000000000000000000 ) ) ;
#84 = CARTESIAN_POINT ( 'NONE',  ( 0.1000000000000000700, 0.0000000000000000000, 0.5150000000000000100 ) ) ;
#85 = DIRECTION ( 'NONE',  ( 0.0000000000000000000, 0.0000000000000000000, 1.000000000000000000 ) ) ;
#86 = DIRECTION ( 'NONE',  ( -1.000000000000000000, 0.0000000000000000000, 0.0000000000000000000 ) ) ;
#87 = DIRECTION ( 'NONE',  ( 0.0000000000000000000, 0.0000000000000000000, 1.000000000000000000 ) ) ;
#88 = DIRECTION ( 'NONE',  ( -1.000000000000000000, 0.0000000000000000000, 0.0000000000000000000 ) ) ;
#89 = CARTESIAN_POINT ( 'NONE',  ( 0.1000000000000000700, 0.0000000000000000000, 0.0000000000000000000 ) ) ;
#90 = AXIS2_PLACEMENT_3D ( 'NONE', #89, #88, #87 ) ;
#91 = CIRCLE ( 'NONE', #90, 0.4350000000000000000 ) ;
#92 = CIRCLE ( 'NONE', #61, 0.03999999999999998000 ) ;
#93 = AXIS2_PLACEMENT_3D ( 'NONE', #59, #86, #85 ) ;
#94 = TOROIDAL_SURFACE ( 'NONE', #93, 0.4749999999999999800, 0.04000000000000000100 ) ;
#95 = CARTESIAN_POINT ( 'NONE',  ( 0.1000000000000000700, 5.817072295949927200E-017, -0.4749999999999999800 ) ) ;
#96 = AXIS2_PLACEMENT_3D ( 'NONE', #95, #50, #49 ) ;
#97 = CARTESIAN_POINT ( 'NONE',  ( 0.1000000000000000700, 0.0000000000000000000, 0.0000000000000000000 ) ) ;
#98 = LOCAL_TIME ( 15, 28, 3.000000000000000000, #99 ) ;
#99 = COORDINATED_UNIVERSAL_TIME_OFFSET ( 5, 30, .AHEAD. ) ;
#100 = APPROVAL_PERSON_ORGANIZATION ( #104, #102, #101 ) ;
#101 = APPROVAL_ROLE ( '' ) ;
#102 = APPROVAL ( #103, 'UNSPECIFIED' ) ;
#103 = APPROVAL_STATUS ( 'not_yet_approved' ) ;
#104 = PERSON_AND_ORGANIZATION ( #159, #162 ) ;
#105 = PRODUCT_DEFINITION_FORMATION_WITH_SPECIFIED_SOURCE ( 'ANY', '', #160, .NOT_KNOWN. ) ;
#106 = ADVANCED_BREP_SHAPE_REPRESENTATION ( 'OR-34-VT', ( #1, #110 ), #151 ) ;
#107 = DIRECTION ( 'NONE',  ( 0.0000000000000000000, 0.0000000000000000000, 1.000000000000000000 ) ) ;
#108 = DIRECTION ( 'NONE',  ( 1.000000000000000000, 0.0000000000000000000, 0.0000000000000000000 ) ) ;
#109 = DIRECTION ( 'NONE',  ( 0.0000000000000000000, 0.0000000000000000000, 1.000000000000000000 ) ) ;
#110 = AXIS2_PLACEMENT_3D ( 'NONE', #188, #109, #108 ) ;
#111 = CARTESIAN_POINT ( 'NONE',  ( 0.1000000000000000700, 0.0000000000000000000, 0.0000000000000000000 ) ) ;
#112 = DIRECTION ( 'NONE',  ( -1.000000000000000000, 0.0000000000000000000, 0.0000000000000000000 ) ) ;
#113 =( NAMED_UNIT ( * ) SI_UNIT ( $, .STERADIAN. ) SOLID_ANGLE_UNIT ( ) );
#114 = CC_DESIGN_DATE_AND_TIME_ASSIGNMENT ( #116, #115, ( #123 ) ) ;
#115 = DATE_TIME_ROLE ( 'classification_date' ) ;
#116 = DATE_AND_TIME ( #117, #118 ) ;
#117 = CALENDAR_DATE ( 2008, 20, 8 ) ;
#118 = LOCAL_TIME ( 15, 28, 3.000000000000000000, #119 ) ;
#119 = COORDINATED_UNIVERSAL_TIME_OFFSET ( 5, 30, .AHEAD. ) ;
#120 = CC_DESIGN_PERSON_AND_ORGANIZATION_ASSIGNMENT ( #122, #121, ( #123 ) ) ;
#121 = PERSON_AND_ORGANIZATION_ROLE ( 'classification_officer' ) ;
#122 = PERSON_AND_ORGANIZATION ( #159, #162 ) ;
#123 = SECURITY_CLASSIFICATION ( '', '', #173 ) ;
#124 = CC_DESIGN_APPROVAL ( #132, ( #123 ) ) ;
#125 = APPROVAL_DATE_TIME ( #126, #132 ) ;
#126 = DATE_AND_TIME ( #127, #128 ) ;
#127 = CALENDAR_DATE ( 2008, 20, 8 ) ;
#128 = LOCAL_TIME ( 15, 28, 3.000000000000000000, #129 ) ;
#129 = COORDINATED_UNIVERSAL_TIME_OFFSET ( 5, 30, .AHEAD. ) ;
#130 = APPROVAL_PERSON_ORGANIZATION ( #134, #132, #131 ) ;
#131 = APPROVAL_ROLE ( '' ) ;
#132 = APPROVAL ( #133, 'UNSPECIFIED' ) ;
#133 = APPROVAL_STATUS ( 'not_yet_approved' ) ;
#134 = PERSON_AND_ORGANIZATION ( #159, #162 ) ;
#135 = DATE_AND_TIME ( #180, #181 ) ;
#136 = CC_DESIGN_PERSON_AND_ORGANIZATION_ASSIGNMENT ( #189, #137, ( #169 ) ) ;
#137 = PERSON_AND_ORGANIZATION_ROLE ( 'creator' ) ;
#138 =( LENGTH_UNIT ( ) NAMED_UNIT ( * ) SI_UNIT ( $, .METRE. ) );
#139 = DIRECTION ( 'NONE',  ( 0.0000000000000000000, 0.0000000000000000000, 1.000000000000000000 ) ) ;
#140 = APPLICATION_PROTOCOL_DEFINITION ( 'international standard', 'config_control_design', 1994, #141 ) ;
#141 = APPLICATION_CONTEXT ( 'configuration controlled 3d designs of mechanical parts and assemblies' ) ;
#142 = CC_DESIGN_PERSON_AND_ORGANIZATION_ASSIGNMENT ( #144, #143, ( #160 ) ) ;
#143 = PERSON_AND_ORGANIZATION_ROLE ( 'design_owner' ) ;
#144 = PERSON_AND_ORGANIZATION ( #159, #162 ) ;
#145 = PRODUCT_DEFINITION_SHAPE ( 'NONE', 'NONE',  #169 ) ;
#146 = PRODUCT_RELATED_PRODUCT_CATEGORY ( 'detail', '', ( #160 ) ) ;
#147 = CC_DESIGN_SECURITY_CLASSIFICATION ( #123, ( #105 ) ) ;
#148 = CARTESIAN_POINT ( 'NONE',  ( 0.1000000000000000700, 0.0000000000000000000, 0.0000000000000000000 ) ) ;
#149 = FACE_OUTER_BOUND ( 'NONE', #10, .T. ) ;
#150 = DIMENSIONAL_EXPONENTS ( 1.000000000000000000, 0.0000000000000000000, 0.0000000000000000000, 0.0000000000000000000, 0.0000000000000000000, 0.0000000000000000000, 0.0000000000000000000 ) ;
#151 =( GEOMETRIC_REPRESENTATION_CONTEXT ( 3 ) GLOBAL_UNCERTAINTY_ASSIGNED_CONTEXT ( ( #184 ) ) GLOBAL_UNIT_ASSIGNED_CONTEXT ( ( #163, #183, #113 ) ) REPRESENTATION_CONTEXT ( 'NONE', 'WORKASPACE' ) );
#152 = PERSON_AND_ORGANIZATION_ROLE ( 'creator' ) ;
#153 = PERSON_AND_ORGANIZATION ( #159, #162 ) ;
#154 = CC_DESIGN_APPROVAL ( #102, ( #105 ) ) ;
#155 = APPROVAL_DATE_TIME ( #156, #102 ) ;
#156 = DATE_AND_TIME ( #157, #98 ) ;
#157 = CALENDAR_DATE ( 2008, 20, 8 ) ;
#158 = DIRECTION ( 'NONE',  ( -1.000000000000000000, 0.0000000000000000000, 0.0000000000000000000 ) ) ;
#159 = PERSON ( 'UNSPECIFIED', 'UNSPECIFIED', 'UNSPECIFIED', ('UNSPECIFIED'), ('UNSPECIFIED'), ('UNSPECIFIED') ) ;
#160 = PRODUCT ( 'OR-34-VT', 'OR-34-VT', '', ( #161 ) ) ;
#161 = MECHANICAL_CONTEXT ( 'NONE', #186, 'mechanical' ) ;
#162 = ORGANIZATION ( 'UNSPECIFIED', 'UNSPECIFIED', '' ) ;
#163 =( CONVERSION_BASED_UNIT ( 'INCH', #196 ) LENGTH_UNIT ( ) NAMED_UNIT ( #150 ) );
#164 = APPROVAL_PERSON_ORGANIZATION ( #168, #166, #165 ) ;
#165 = APPROVAL_ROLE ( '' ) ;
#166 = APPROVAL ( #167, 'UNSPECIFIED' ) ;
#167 = APPROVAL_STATUS ( 'not_yet_approved' ) ;
#168 = PERSON_AND_ORGANIZATION ( #159, #162 ) ;
#169 = PRODUCT_DEFINITION ( 'UNKNOWN', '', #105, #170 ) ;
#170 = DESIGN_CONTEXT ( 'detailed design', #141, 'design' ) ;
#171 = SHAPE_DEFINITION_REPRESENTATION ( #145, #106 ) ;
#172 = TOROIDAL_SURFACE ( 'NONE', #187, 0.4749999999999999800, 0.04000000000000000100 ) ;
#173 = SECURITY_CLASSIFICATION_LEVEL ( 'unclassified' ) ;
#174 = CC_DESIGN_PERSON_AND_ORGANIZATION_ASSIGNMENT ( #176, #175, ( #105 ) ) ;
#175 = PERSON_AND_ORGANIZATION_ROLE ( 'design_supplier' ) ;
#176 = PERSON_AND_ORGANIZATION ( #159, #162 ) ;
#177 = CC_DESIGN_PERSON_AND_ORGANIZATION_ASSIGNMENT ( #153, #152, ( #105 ) ) ;
#178 = CC_DESIGN_DATE_AND_TIME_ASSIGNMENT ( #135, #179, ( #169 ) ) ;
#179 = DATE_TIME_ROLE ( 'creation_date' ) ;
#180 = CALENDAR_DATE ( 2008, 20, 8 ) ;
#181 = LOCAL_TIME ( 15, 28, 3.000000000000000000, #182 ) ;
#182 = COORDINATED_UNIVERSAL_TIME_OFFSET ( 5, 30, .AHEAD. ) ;
#183 =( NAMED_UNIT ( * ) PLANE_ANGLE_UNIT ( ) SI_UNIT ( $, .RADIAN. ) );
#184 = UNCERTAINTY_MEASURE_WITH_UNIT (LENGTH_MEASURE( 1.000000000000000100E-005 ), #163, 'distance_accuracy_value', 'NONE');
#185 = APPLICATION_PROTOCOL_DEFINITION ( 'international standard', 'config_control_design', 1994, #186 ) ;
#186 = APPLICATION_CONTEXT ( 'configuration controlled 3d designs of mechanical parts and assemblies' ) ;
#187 = AXIS2_PLACEMENT_3D ( 'NONE', #111, #112, #139 ) ;
#188 = CARTESIAN_POINT ( 'NONE',  ( 0.0000000000000000000, 0.0000000000000000000, 0.0000000000000000000 ) ) ;
#189 = PERSON_AND_ORGANIZATION ( #159, #162 ) ;
#190 = CC_DESIGN_APPROVAL ( #166, ( #169 ) ) ;
#191 = APPROVAL_DATE_TIME ( #192, #166 ) ;
#192 = DATE_AND_TIME ( #193, #194 ) ;
#193 = CALENDAR_DATE ( 2008, 20, 8 ) ;
#194 = LOCAL_TIME ( 15, 28, 3.000000000000000000, #195 ) ;
#195 = COORDINATED_UNIVERSAL_TIME_OFFSET ( 5, 30, .AHEAD. ) ;
#196 = LENGTH_MEASURE_WITH_UNIT ( LENGTH_MEASURE( 0.02539999999999999900 ), #138 );
ENDSEC;
END-ISO-10303-21;
