ISO-10303-21;
HEADER;
FILE_DESCRIPTION (( 'STEP AP203' ),
    '1' );
FILE_NAME ('OR-54-BN.STEP',
    '2008-03-29T10:14:33',
    ( 'Baystate-05' ),
    ( 'BayState InfoTech' ),
    'SwSTEP 2.0',
    'SolidWorks 2007',
    '' );
FILE_SCHEMA (( 'CONFIG_CONTROL_DESIGN' ));
ENDSEC;

DATA;
#1 = LENGTH_MEASURE_WITH_UNIT ( LENGTH_MEASURE( 0.02539999999999999900 ), #93 );
#2 = DIMENSIONAL_EXPONENTS ( 1.000000000000000000, 0.0000000000000000000, 0.0000000000000000000, 0.0000000000000000000, 0.0000000000000000000, 0.0000000000000000000, 0.0000000000000000000 ) ;
#3 = FACE_OUTER_BOUND ( 'NONE', #7, .T. ) ;
#4 =( CONVERSION_BASED_UNIT ( 'INCH', #1 ) LENGTH_UNIT ( ) NAMED_UNIT ( #2 ) );
#5 = MANIFOLD_SOLID_BREP ( 'NONE', #38 ) ;
#6 = ADVANCED_FACE ( 'NONE', ( #3 ), #52, .T. ) ;
#7 = EDGE_LOOP ( 'NONE', ( #14, #8, #10, #13 ) ) ;
#8 = ORIENTED_EDGE ( 'NONE', *, *, #9, .T. ) ;
#9 = EDGE_CURVE ( 'NONE', #16, #18, #45, .T. ) ;
#10 = ORIENTED_EDGE ( 'NONE', *, *, #11, .T. ) ;
#11 = EDGE_CURVE ( 'NONE', #18, #12, #54, .T. ) ;
#12 = VERTEX_POINT ( 'NONE', #48 ) ;
#13 = ORIENTED_EDGE ( 'NONE', *, *, #40, .F. ) ;
#14 = ORIENTED_EDGE ( 'NONE', *, *, #15, .F. ) ;
#15 = EDGE_CURVE ( 'NONE', #16, #17, #79, .T. ) ;
#16 = VERTEX_POINT ( 'NONE', #104 ) ;
#17 = VERTEX_POINT ( 'NONE', #109 ) ;
#18 = VERTEX_POINT ( 'NONE', #89 ) ;
#19 = ORIENTED_EDGE ( 'NONE', *, *, #9, .F. ) ;
#20 = ORIENTED_EDGE ( 'NONE', *, *, #21, .F. ) ;
#21 = EDGE_CURVE ( 'NONE', #17, #16, #76, .T. ) ;
#22 = ADVANCED_FACE ( 'NONE', ( #88 ), #107, .T. ) ;
#23 = ORIENTED_EDGE ( 'NONE', *, *, #28, .T. ) ;
#24 = ORIENTED_EDGE ( 'NONE', *, *, #21, .T. ) ;
#25 = EDGE_LOOP ( 'NONE', ( #19, #20, #36, #37 ) ) ;
#26 = ORIENTED_EDGE ( 'NONE', *, *, #15, .T. ) ;
#27 = ORIENTED_EDGE ( 'NONE', *, *, #28, .F. ) ;
#28 = EDGE_CURVE ( 'NONE', #12, #17, #98, .T. ) ;
#29 = EDGE_LOOP ( 'NONE', ( #34, #31, #23, #24 ) ) ;
#30 = ORIENTED_EDGE ( 'NONE', *, *, #33, .T. ) ;
#31 = ORIENTED_EDGE ( 'NONE', *, *, #32, .F. ) ;
#32 = EDGE_CURVE ( 'NONE', #12, #18, #102, .T. ) ;
#33 = EDGE_CURVE ( 'NONE', #18, #16, #77, .T. ) ;
#34 = ORIENTED_EDGE ( 'NONE', *, *, #33, .F. ) ;
#35 = ADVANCED_FACE ( 'NONE', ( #78 ), #82, .T. ) ;
#36 = ORIENTED_EDGE ( 'NONE', *, *, #40, .T. ) ;
#37 = ORIENTED_EDGE ( 'NONE', *, *, #32, .T. ) ;
#38 = CLOSED_SHELL ( 'NONE', ( #6, #42, #35, #22 ) ) ;
#39 = ORIENTED_EDGE ( 'NONE', *, *, #11, .F. ) ;
#40 = EDGE_CURVE ( 'NONE', #17, #12, #67, .T. ) ;
#41 = EDGE_LOOP ( 'NONE', ( #39, #30, #26, #27 ) ) ;
#42 = ADVANCED_FACE ( 'NONE', ( #61 ), #60, .T. ) ;
#43 = CARTESIAN_POINT ( 'NONE',  ( 0.1000000000000000900, 0.0000000000000000000, 0.0000000000000000000 ) ) ;
#44 = AXIS2_PLACEMENT_3D ( 'NONE', #43, #56, #55 ) ;
#45 = CIRCLE ( 'NONE', #44, 0.8500000000000000900 ) ;
#46 = CARTESIAN_POINT ( 'NONE',  ( 0.1000000000000000900, 0.0000000000000000000, 0.8000000000000000400 ) ) ;
#47 =( NAMED_UNIT ( * ) PLANE_ANGLE_UNIT ( ) SI_UNIT ( $, .RADIAN. ) );
#48 = CARTESIAN_POINT ( 'NONE',  ( 0.1000000000000000900, 0.0000000000000000000, 0.7500000000000001100 ) ) ;
#49 = DIRECTION ( 'NONE',  ( 0.0000000000000000000, 0.0000000000000000000, -1.000000000000000000 ) ) ;
#50 = DIRECTION ( 'NONE',  ( 0.0000000000000000000, -1.000000000000000000, 0.0000000000000000000 ) ) ;
#51 = AXIS2_PLACEMENT_3D ( 'NONE', #46, #50, #49 ) ;
#52 = TOROIDAL_SURFACE ( 'NONE', #59, 0.8000000000000000400, 0.05000000000000002400 ) ;
#53 = DIRECTION ( 'NONE',  ( 0.0000000000000000000, 0.0000000000000000000, 1.000000000000000000 ) ) ;
#54 = CIRCLE ( 'NONE', #51, 0.05000000000000001000 ) ;
#55 = DIRECTION ( 'NONE',  ( 0.0000000000000000000, 0.0000000000000000000, 1.000000000000000000 ) ) ;
#56 = DIRECTION ( 'NONE',  ( -1.000000000000000000, 0.0000000000000000000, 0.0000000000000000000 ) ) ;
#57 = DIRECTION ( 'NONE',  ( -1.000000000000000000, 0.0000000000000000000, 0.0000000000000000000 ) ) ;
#58 = CARTESIAN_POINT ( 'NONE',  ( 0.1000000000000000900, 0.0000000000000000000, 0.0000000000000000000 ) ) ;
#59 = AXIS2_PLACEMENT_3D ( 'NONE', #58, #57, #53 ) ;
#60 = TOROIDAL_SURFACE ( 'NONE', #97, 0.8000000000000000400, 0.05000000000000002400 ) ;
#61 = FACE_OUTER_BOUND ( 'NONE', #41, .T. ) ;
#62 = DIRECTION ( 'NONE',  ( 0.0000000000000000000, 0.0000000000000000000, 1.000000000000000000 ) ) ;
#63 = DIRECTION ( 'NONE',  ( -1.000000000000000000, 0.0000000000000000000, 0.0000000000000000000 ) ) ;
#64 = CARTESIAN_POINT ( 'NONE',  ( 0.1000000000000000900, 0.0000000000000000000, 0.0000000000000000000 ) ) ;
#65 = AXIS2_PLACEMENT_3D ( 'NONE', #64, #111, #110 ) ;
#66 = AXIS2_PLACEMENT_3D ( 'NONE', #83, #63, #62 ) ;
#67 = CIRCLE ( 'NONE', #66, 0.7500000000000001100 ) ;
#68 = DIRECTION ( 'NONE',  ( 0.0000000000000000000, 0.0000000000000000000, 1.000000000000000000 ) ) ;
#69 = CARTESIAN_POINT ( 'NONE',  ( 0.1000000000000000900, 0.0000000000000000000, 0.0000000000000000000 ) ) ;
#70 = CARTESIAN_POINT ( 'NONE',  ( 0.1000000000000000900, 0.0000000000000000000, 0.0000000000000000000 ) ) ;
#71 = DIRECTION ( 'NONE',  ( 0.0000000000000000000, 0.0000000000000000000, 1.000000000000000000 ) ) ;
#72 = DIRECTION ( 'NONE',  ( -1.000000000000000000, 0.0000000000000000000, 0.0000000000000000000 ) ) ;
#73 = AXIS2_PLACEMENT_3D ( 'NONE', #85, #72, #71 ) ;
#74 = DIRECTION ( 'NONE',  ( 0.0000000000000000000, 1.000000000000000000, 1.224646799147353200E-016 ) ) ;
#75 = AXIS2_PLACEMENT_3D ( 'NONE', #106, #105, #108 ) ;
#76 = CIRCLE ( 'NONE', #75, 0.05000000000000001000 ) ;
#77 = CIRCLE ( 'NONE', #73, 0.8500000000000000900 ) ;
#78 = FACE_OUTER_BOUND ( 'NONE', #29, .T. ) ;
#79 = CIRCLE ( 'NONE', #86, 0.05000000000000001000 ) ;
#80 = DIRECTION ( 'NONE',  ( -1.000000000000000000, 0.0000000000000000000, 0.0000000000000000000 ) ) ;
#81 = AXIS2_PLACEMENT_3D ( 'NONE', #70, #80, #68 ) ;
#82 = TOROIDAL_SURFACE ( 'NONE', #81, 0.8000000000000000400, 0.05000000000000002400 ) ;
#83 = CARTESIAN_POINT ( 'NONE',  ( 0.1000000000000000900, 0.0000000000000000000, 0.0000000000000000000 ) ) ;
#84 = CARTESIAN_POINT ( 'NONE',  ( 0.1000000000000000900, 0.0000000000000000000, 0.8000000000000000400 ) ) ;
#85 = CARTESIAN_POINT ( 'NONE',  ( 0.1000000000000000900, 0.0000000000000000000, 0.0000000000000000000 ) ) ;
#86 = AXIS2_PLACEMENT_3D ( 'NONE', #87, #74, #103 ) ;
#87 = CARTESIAN_POINT ( 'NONE',  ( 0.1000000000000000900, 9.797174393178826200E-017, -0.8000000000000000400 ) ) ;
#88 = FACE_OUTER_BOUND ( 'NONE', #25, .T. ) ;
#89 = CARTESIAN_POINT ( 'NONE',  ( 0.1000000000000000900, 0.0000000000000000000, 0.8500000000000000900 ) ) ;
#90 = DIRECTION ( 'NONE',  ( 0.0000000000000000000, 0.0000000000000000000, 1.000000000000000000 ) ) ;
#91 = DIRECTION ( 'NONE',  ( -1.000000000000000000, 0.0000000000000000000, 0.0000000000000000000 ) ) ;
#92 = AXIS2_PLACEMENT_3D ( 'NONE', #69, #91, #90 ) ;
#93 =( LENGTH_UNIT ( ) NAMED_UNIT ( * ) SI_UNIT ( $, .METRE. ) );
#94 = DIRECTION ( 'NONE',  ( 0.0000000000000000000, 0.0000000000000000000, 1.000000000000000000 ) ) ;
#95 = DIRECTION ( 'NONE',  ( -1.000000000000000000, 0.0000000000000000000, 0.0000000000000000000 ) ) ;
#96 = CARTESIAN_POINT ( 'NONE',  ( 0.1000000000000000900, 0.0000000000000000000, 0.0000000000000000000 ) ) ;
#97 = AXIS2_PLACEMENT_3D ( 'NONE', #96, #95, #94 ) ;
#98 = CIRCLE ( 'NONE', #65, 0.7500000000000001100 ) ;
#99 = DIRECTION ( 'NONE',  ( 0.0000000000000000000, 0.0000000000000000000, -1.000000000000000000 ) ) ;
#100 = DIRECTION ( 'NONE',  ( 0.0000000000000000000, -1.000000000000000000, 0.0000000000000000000 ) ) ;
#101 = AXIS2_PLACEMENT_3D ( 'NONE', #84, #100, #99 ) ;
#102 = CIRCLE ( 'NONE', #101, 0.05000000000000001000 ) ;
#103 = DIRECTION ( 'NONE',  ( 0.0000000000000000000, -1.224646799147354700E-016, 1.000000000000000000 ) ) ;
#104 = CARTESIAN_POINT ( 'NONE',  ( 0.1000000000000000900, 1.040949779275250400E-016, -0.8500000000000000900 ) ) ;
#105 = DIRECTION ( 'NONE',  ( 0.0000000000000000000, 1.000000000000000000, 1.224646799147353200E-016 ) ) ;
#106 = CARTESIAN_POINT ( 'NONE',  ( 0.1000000000000000900, 9.797174393178826200E-017, -0.8000000000000000400 ) ) ;
#107 = TOROIDAL_SURFACE ( 'NONE', #92, 0.8000000000000000400, 0.05000000000000002400 ) ;
#108 = DIRECTION ( 'NONE',  ( 0.0000000000000000000, -1.224646799147354700E-016, 1.000000000000000000 ) ) ;
#109 = CARTESIAN_POINT ( 'NONE',  ( 0.1000000000000000900, 9.184850993605148400E-017, -0.7500000000000001100 ) ) ;
#110 = DIRECTION ( 'NONE',  ( 0.0000000000000000000, 0.0000000000000000000, 1.000000000000000000 ) ) ;
#111 = DIRECTION ( 'NONE',  ( -1.000000000000000000, 0.0000000000000000000, 0.0000000000000000000 ) ) ;
#112 = CC_DESIGN_APPROVAL ( #178, ( #185 ) ) ;
#113 = APPROVAL_DATE_TIME ( #175, #178 ) ;
#114 = CALENDAR_DATE ( 2008, 29, 3 ) ;
#115 = LOCAL_TIME ( 15, 44, 33.00000000000000000, #116 ) ;
#116 = COORDINATED_UNIVERSAL_TIME_OFFSET ( 5, 30, .AHEAD. ) ;
#117 = CC_DESIGN_SECURITY_CLASSIFICATION ( #140, ( #185 ) ) ;
#118 = CC_DESIGN_APPROVAL ( #163, ( #140 ) ) ;
#119 = APPROVAL_DATE_TIME ( #120, #163 ) ;
#120 = DATE_AND_TIME ( #121, #122 ) ;
#121 = CALENDAR_DATE ( 2008, 29, 3 ) ;
#122 = LOCAL_TIME ( 15, 44, 33.00000000000000000, #123 ) ;
#123 = COORDINATED_UNIVERSAL_TIME_OFFSET ( 5, 30, .AHEAD. ) ;
#124 = APPROVAL_PERSON_ORGANIZATION ( #165, #163, #162 ) ;
#125 = LOCAL_TIME ( 15, 44, 33.00000000000000000, #126 ) ;
#126 = COORDINATED_UNIVERSAL_TIME_OFFSET ( 5, 30, .AHEAD. ) ;
#127 = APPROVAL_PERSON_ORGANIZATION ( #181, #129, #128 ) ;
#128 = APPROVAL_ROLE ( '' ) ;
#129 = APPROVAL ( #130, 'UNSPECIFIED' ) ;
#130 = APPROVAL_STATUS ( 'not_yet_approved' ) ;
#131 = PRODUCT_DEFINITION ( 'UNKNOWN', '', #185, #182 ) ;
#132 = PRODUCT ( 'OR-54-BN', 'OR-54-BN', '', ( #133 ) ) ;
#133 = MECHANICAL_CONTEXT ( 'NONE', #135, 'mechanical' ) ;
#134 = APPLICATION_PROTOCOL_DEFINITION ( 'international standard', 'config_control_design', 1994, #135 ) ;
#135 = APPLICATION_CONTEXT ( 'configuration controlled 3d designs of mechanical parts and assemblies' ) ;
#136 = COORDINATED_UNIVERSAL_TIME_OFFSET ( 5, 30, .AHEAD. ) ;
#137 = CC_DESIGN_PERSON_AND_ORGANIZATION_ASSIGNMENT ( #139, #138, ( #140 ) ) ;
#138 = PERSON_AND_ORGANIZATION_ROLE ( 'classification_officer' ) ;
#139 = PERSON_AND_ORGANIZATION ( #144, #191 ) ;
#140 = SECURITY_CLASSIFICATION ( '', '', #153 ) ;
#141 = CARTESIAN_POINT ( 'NONE',  ( 0.0000000000000000000, 0.0000000000000000000, 0.0000000000000000000 ) ) ;
#142 = UNCERTAINTY_MEASURE_WITH_UNIT (LENGTH_MEASURE( 1.000000000000000100E-005 ), #4, 'distance_accuracy_value', 'NONE');
#143 = PERSON_AND_ORGANIZATION ( #144, #191 ) ;
#144 = PERSON ( 'UNSPECIFIED', 'UNSPECIFIED', 'UNSPECIFIED', ('UNSPECIFIED'), ('UNSPECIFIED'), ('UNSPECIFIED') ) ;
#145 = SHAPE_DEFINITION_REPRESENTATION ( #147, #146 ) ;
#146 = ADVANCED_BREP_SHAPE_REPRESENTATION ( 'OR-54-BN', ( #5, #172 ), #196 ) ;
#147 = PRODUCT_DEFINITION_SHAPE ( 'NONE', 'NONE',  #131 ) ;
#148 = PRODUCT_RELATED_PRODUCT_CATEGORY ( 'detail', '', ( #132 ) ) ;
#149 = COORDINATED_UNIVERSAL_TIME_OFFSET ( 5, 30, .AHEAD. ) ;
#150 = CC_DESIGN_PERSON_AND_ORGANIZATION_ASSIGNMENT ( #152, #151, ( #131 ) ) ;
#151 = PERSON_AND_ORGANIZATION_ROLE ( 'creator' ) ;
#152 = PERSON_AND_ORGANIZATION ( #144, #191 ) ;
#153 = SECURITY_CLASSIFICATION_LEVEL ( 'unclassified' ) ;
#154 = CC_DESIGN_PERSON_AND_ORGANIZATION_ASSIGNMENT ( #156, #155, ( #185 ) ) ;
#155 = PERSON_AND_ORGANIZATION_ROLE ( 'design_supplier' ) ;
#156 = PERSON_AND_ORGANIZATION ( #144, #191 ) ;
#157 = CC_DESIGN_PERSON_AND_ORGANIZATION_ASSIGNMENT ( #159, #158, ( #185 ) ) ;
#158 = PERSON_AND_ORGANIZATION_ROLE ( 'creator' ) ;
#159 = PERSON_AND_ORGANIZATION ( #144, #191 ) ;
#160 =( NAMED_UNIT ( * ) SI_UNIT ( $, .STERADIAN. ) SOLID_ANGLE_UNIT ( ) );
#161 = DIRECTION ( 'NONE',  ( 0.0000000000000000000, 0.0000000000000000000, 1.000000000000000000 ) ) ;
#162 = APPROVAL_ROLE ( '' ) ;
#163 = APPROVAL ( #164, 'UNSPECIFIED' ) ;
#164 = APPROVAL_STATUS ( 'not_yet_approved' ) ;
#165 = PERSON_AND_ORGANIZATION ( #144, #191 ) ;
#166 = CC_DESIGN_DATE_AND_TIME_ASSIGNMENT ( #168, #167, ( #140 ) ) ;
#167 = DATE_TIME_ROLE ( 'classification_date' ) ;
#168 = DATE_AND_TIME ( #169, #170 ) ;
#169 = CALENDAR_DATE ( 2008, 29, 3 ) ;
#170 = LOCAL_TIME ( 15, 44, 33.00000000000000000, #136 ) ;
#171 = DIRECTION ( 'NONE',  ( 1.000000000000000000, 0.0000000000000000000, 0.0000000000000000000 ) ) ;
#172 = AXIS2_PLACEMENT_3D ( 'NONE', #141, #161, #171 ) ;
#173 = CC_DESIGN_PERSON_AND_ORGANIZATION_ASSIGNMENT ( #143, #174, ( #132 ) ) ;
#174 = PERSON_AND_ORGANIZATION_ROLE ( 'design_owner' ) ;
#175 = DATE_AND_TIME ( #114, #115 ) ;
#176 = APPROVAL_PERSON_ORGANIZATION ( #180, #178, #177 ) ;
#177 = APPROVAL_ROLE ( '' ) ;
#178 = APPROVAL ( #179, 'UNSPECIFIED' ) ;
#179 = APPROVAL_STATUS ( 'not_yet_approved' ) ;
#180 = PERSON_AND_ORGANIZATION ( #144, #191 ) ;
#181 = PERSON_AND_ORGANIZATION ( #144, #191 ) ;
#182 = DESIGN_CONTEXT ( 'detailed design', #184, 'design' ) ;
#183 = APPLICATION_PROTOCOL_DEFINITION ( 'international standard', 'config_control_design', 1994, #184 ) ;
#184 = APPLICATION_CONTEXT ( 'configuration controlled 3d designs of mechanical parts and assemblies' ) ;
#185 = PRODUCT_DEFINITION_FORMATION_WITH_SPECIFIED_SOURCE ( 'ANY', '', #132, .NOT_KNOWN. ) ;
#186 = CC_DESIGN_DATE_AND_TIME_ASSIGNMENT ( #188, #187, ( #131 ) ) ;
#187 = DATE_TIME_ROLE ( 'creation_date' ) ;
#188 = DATE_AND_TIME ( #189, #190 ) ;
#189 = CALENDAR_DATE ( 2008, 29, 3 ) ;
#190 = LOCAL_TIME ( 15, 44, 33.00000000000000000, #149 ) ;
#191 = ORGANIZATION ( 'UNSPECIFIED', 'UNSPECIFIED', '' ) ;
#192 = CC_DESIGN_APPROVAL ( #129, ( #131 ) ) ;
#193 = APPROVAL_DATE_TIME ( #194, #129 ) ;
#194 = DATE_AND_TIME ( #195, #125 ) ;
#195 = CALENDAR_DATE ( 2008, 29, 3 ) ;
#196 =( GEOMETRIC_REPRESENTATION_CONTEXT ( 3 ) GLOBAL_UNCERTAINTY_ASSIGNED_CONTEXT ( ( #142 ) ) GLOBAL_UNIT_ASSIGNED_CONTEXT ( ( #4, #47, #160 ) ) REPRESENTATION_CONTEXT ( 'NONE', 'WORKASPACE' ) );
ENDSEC;
END-ISO-10303-21;
