ISO-10303-21;
HEADER;
FILE_DESCRIPTION (( 'STEP AP203' ),
    '1' );
FILE_NAME ('MS-50-NY.STEP',
    '2008-03-29T07:56:27',
    ( '' ),
    ( '' ),
    'SwSTEP 2.0',
    'SolidWorks 2007',
    '' );
FILE_SCHEMA (( 'CONFIG_CONTROL_DESIGN' ));
ENDSEC;

DATA;
#1 = ORIENTED_EDGE ( 'NONE', *, *, #11, .F. ) ;
#2 = EDGE_LOOP ( 'NONE', ( #1, #6, #7, #4 ) ) ;
#3 = CLOSED_SHELL ( 'NONE', ( #46, #53, #30, #26, #42, #5 ) ) ;
#4 = ORIENTED_EDGE ( 'NONE', *, *, #16, .T. ) ;
#5 = ADVANCED_FACE ( 'NONE', ( #37 ), #64, .F. ) ;
#6 = ORIENTED_EDGE ( 'NONE', *, *, #57, .F. ) ;
#7 = ORIENTED_EDGE ( 'NONE', *, *, #52, .T. ) ;
#8 = ORIENTED_EDGE ( 'NONE', *, *, #13, .F. ) ;
#9 = VERTEX_POINT ( 'NONE', #82 ) ;
#10 = VERTEX_POINT ( 'NONE', #77 ) ;
#11 = EDGE_CURVE ( 'NONE', #25, #58, #78, .T. ) ;
#12 = ORIENTED_EDGE ( 'NONE', *, *, #13, .T. ) ;
#13 = EDGE_CURVE ( 'NONE', #9, #10, #69, .T. ) ;
#14 = ORIENTED_EDGE ( 'NONE', *, *, #27, .F. ) ;
#15 = ORIENTED_EDGE ( 'NONE', *, *, #16, .F. ) ;
#16 = EDGE_CURVE ( 'NONE', #61, #58, #73, .T. ) ;
#17 = EDGE_LOOP ( 'NONE', ( #15, #21 ) ) ;
#18 = EDGE_CURVE ( 'NONE', #25, #19, #83, .T. ) ;
#19 = VERTEX_POINT ( 'NONE', #117 ) ;
#20 = ORIENTED_EDGE ( 'NONE', *, *, #11, .T. ) ;
#21 = ORIENTED_EDGE ( 'NONE', *, *, #60, .F. ) ;
#22 = ORIENTED_EDGE ( 'NONE', *, *, #38, .T. ) ;
#23 = ORIENTED_EDGE ( 'NONE', *, *, #24, .T. ) ;
#24 = EDGE_CURVE ( 'NONE', #43, #44, #118, .T. ) ;
#25 = VERTEX_POINT ( 'NONE', #180 ) ;
#26 = ADVANCED_FACE ( 'NONE', ( #179 ), #114, .T. ) ;
#27 = EDGE_CURVE ( 'NONE', #10, #9, #127, .T. ) ;
#28 = ORIENTED_EDGE ( 'NONE', *, *, #29, .F. ) ;
#29 = EDGE_CURVE ( 'NONE', #9, #44, #124, .T. ) ;
#30 = ADVANCED_FACE ( 'NONE', ( #96, #95 ), #108, .T. ) ;
#31 = EDGE_LOOP ( 'NONE', ( #22, #23 ) ) ;
#32 = EDGE_LOOP ( 'NONE', ( #33, #34, #35, #45 ) ) ;
#33 = ORIENTED_EDGE ( 'NONE', *, *, #50, .F. ) ;
#34 = ORIENTED_EDGE ( 'NONE', *, *, #27, .T. ) ;
#35 = ORIENTED_EDGE ( 'NONE', *, *, #29, .T. ) ;
#36 = DIRECTION ( 'NONE',  ( 0.0000000000000000000, 0.0000000000000000000, 1.000000000000000000 ) ) ;
#37 = FACE_OUTER_BOUND ( 'NONE', #2, .T. ) ;
#38 = EDGE_CURVE ( 'NONE', #44, #43, #121, .T. ) ;
#39 = ORIENTED_EDGE ( 'NONE', *, *, #38, .F. ) ;
#40 = EDGE_LOOP ( 'NONE', ( #8, #14 ) ) ;
#41 = ORIENTED_EDGE ( 'NONE', *, *, #18, .T. ) ;
#42 = ADVANCED_FACE ( 'NONE', ( #122, #163 ), #162, .T. ) ;
#43 = VERTEX_POINT ( 'NONE', #161 ) ;
#44 = VERTEX_POINT ( 'NONE', #160 ) ;
#45 = ORIENTED_EDGE ( 'NONE', *, *, #24, .F. ) ;
#46 = ADVANCED_FACE ( 'NONE', ( #159 ), #158, .F. ) ;
#47 = EDGE_LOOP ( 'NONE', ( #48, #20, #59, #51 ) ) ;
#48 = ORIENTED_EDGE ( 'NONE', *, *, #18, .F. ) ;
#49 = ORIENTED_EDGE ( 'NONE', *, *, #50, .T. ) ;
#50 = EDGE_CURVE ( 'NONE', #10, #43, #102, .T. ) ;
#51 = ORIENTED_EDGE ( 'NONE', *, *, #52, .F. ) ;
#52 = EDGE_CURVE ( 'NONE', #19, #61, #178, .T. ) ;
#53 = ADVANCED_FACE ( 'NONE', ( #174 ), #173, .T. ) ;
#54 = ORIENTED_EDGE ( 'NONE', *, *, #57, .T. ) ;
#55 = EDGE_LOOP ( 'NONE', ( #54, #41 ) ) ;
#56 = EDGE_LOOP ( 'NONE', ( #12, #49, #39, #28 ) ) ;
#57 = EDGE_CURVE ( 'NONE', #19, #25, #151, .T. ) ;
#58 = VERTEX_POINT ( 'NONE', #141 ) ;
#59 = ORIENTED_EDGE ( 'NONE', *, *, #60, .T. ) ;
#60 = EDGE_CURVE ( 'NONE', #58, #61, #140, .T. ) ;
#61 = VERTEX_POINT ( 'NONE', #135 ) ;
#62 = MANIFOLD_SOLID_BREP ( 'NONE', #3 ) ;
#63 = DIRECTION ( 'NONE',  ( 0.0000000000000000000, 0.0000000000000000000, 1.000000000000000000 ) ) ;
#64 = CYLINDRICAL_SURFACE ( 'NONE', #65, 0.9849999999999999900 ) ;
#65 = AXIS2_PLACEMENT_3D ( 'NONE', #66, #67, #63 ) ;
#66 = CARTESIAN_POINT ( 'NONE',  ( -1.721125226614714300, 0.0000000000000000000, 0.0000000000000000000 ) ) ;
#67 = DIRECTION ( 'NONE',  ( -1.000000000000000000, 0.0000000000000000000, 0.0000000000000000000 ) ) ;
#68 = CARTESIAN_POINT ( 'NONE',  ( 0.07999999999999996000, 0.0000000000000000000, 0.0000000000000000000 ) ) ;
#69 = CIRCLE ( 'NONE', #76, 1.149999999999999900 ) ;
#70 = CARTESIAN_POINT ( 'NONE',  ( 0.0000000000000000000, 0.0000000000000000000, 0.0000000000000000000 ) ) ;
#71 = DIRECTION ( 'NONE',  ( -1.000000000000000000, 0.0000000000000000000, 0.0000000000000000000 ) ) ;
#72 = AXIS2_PLACEMENT_3D ( 'NONE', #70, #71, #36 ) ;
#73 = CIRCLE ( 'NONE', #72, 0.9849999999999999900 ) ;
#74 = DIRECTION ( 'NONE',  ( 0.0000000000000000000, 0.0000000000000000000, 1.000000000000000000 ) ) ;
#75 = DIRECTION ( 'NONE',  ( -1.000000000000000000, 0.0000000000000000000, 0.0000000000000000000 ) ) ;
#76 = AXIS2_PLACEMENT_3D ( 'NONE', #68, #75, #74 ) ;
#77 = CARTESIAN_POINT ( 'NONE',  ( 0.07999999999999996000, 1.408343819019456000E-016, -1.149999999999999900 ) ) ;
#78 = LINE ( 'NONE', #81, #80 ) ;
#79 = DIRECTION ( 'NONE',  ( -1.000000000000000000, 0.0000000000000000000, 0.0000000000000000000 ) ) ;
#80 = VECTOR ( 'NONE', #79, 39.37007874015748100 ) ;
#81 = CARTESIAN_POINT ( 'NONE',  ( -1.721125226614714300, 1.206277097160143100E-016, -0.9849999999999999900 ) ) ;
#82 = CARTESIAN_POINT ( 'NONE',  ( 0.07999999999999996000, 0.0000000000000000000, 1.149999999999999900 ) ) ;
#83 = CIRCLE ( 'NONE', #87, 0.9849999999999999900 ) ;
#84 = DIRECTION ( 'NONE',  ( 0.0000000000000000000, 0.0000000000000000000, 1.000000000000000000 ) ) ;
#85 = DIRECTION ( 'NONE',  ( -1.000000000000000000, 0.0000000000000000000, 0.0000000000000000000 ) ) ;
#86 = CARTESIAN_POINT ( 'NONE',  ( 0.07999999999999996000, 0.0000000000000000000, 0.0000000000000000000 ) ) ;
#87 = AXIS2_PLACEMENT_3D ( 'NONE', #86, #85, #84 ) ;
#88 = MECHANICAL_CONTEXT ( 'NONE', #91, 'mechanical' ) ;
#89 = PRODUCT ( 'MS-50-NY', 'MS-50-NY', '', ( #88 ) ) ;
#90 = PERSON ( 'UNSPECIFIED', 'UNSPECIFIED', 'UNSPECIFIED', ('UNSPECIFIED'), ('UNSPECIFIED'), ('UNSPECIFIED') ) ;
#91 = APPLICATION_CONTEXT ( 'configuration controlled 3d designs of mechanical parts and assemblies' ) ;
#92 = APPLICATION_PROTOCOL_DEFINITION ( 'international standard', 'config_control_design', 1994, #91 ) ;
#93 = AXIS2_PLACEMENT_3D ( 'NONE', #181, #94, #103 ) ;
#94 = DIRECTION ( 'NONE',  ( -1.000000000000000000, 0.0000000000000000000, 0.0000000000000000000 ) ) ;
#95 = FACE_BOUND ( 'NONE', #17, .T. ) ;
#96 = FACE_OUTER_BOUND ( 'NONE', #31, .T. ) ;
#97 = DIRECTION ( 'NONE',  ( -1.000000000000000000, 0.0000000000000000000, 0.0000000000000000000 ) ) ;
#98 = VECTOR ( 'NONE', #97, 39.37007874015748100 ) ;
#99 = DIRECTION ( 'NONE',  ( -1.000000000000000000, 0.0000000000000000000, 0.0000000000000000000 ) ) ;
#100 = VECTOR ( 'NONE', #99, 39.37007874015748100 ) ;
#101 = CARTESIAN_POINT ( 'NONE',  ( -1.721125226614714300, 1.408343819019456000E-016, -1.149999999999999900 ) ) ;
#102 = LINE ( 'NONE', #101, #100 ) ;
#103 = DIRECTION ( 'NONE',  ( 0.0000000000000000000, 0.0000000000000000000, 1.000000000000000000 ) ) ;
#104 = DIRECTION ( 'NONE',  ( 0.0000000000000000000, 0.0000000000000000000, 1.000000000000000000 ) ) ;
#105 = DIRECTION ( 'NONE',  ( -1.000000000000000000, 0.0000000000000000000, 0.0000000000000000000 ) ) ;
#106 = CARTESIAN_POINT ( 'NONE',  ( 3.459512949548214000E-017, -0.9849999999999999900, 0.0000000000000000000 ) ) ;
#107 = AXIS2_PLACEMENT_3D ( 'NONE', #106, #105, #104 ) ;
#108 = PLANE ( 'NONE',  #107 ) ;
#109 = DIRECTION ( 'NONE',  ( 0.0000000000000000000, 0.0000000000000000000, -1.000000000000000000 ) ) ;
#110 = DIRECTION ( 'NONE',  ( 1.000000000000000000, 0.0000000000000000000, 0.0000000000000000000 ) ) ;
#111 = CARTESIAN_POINT ( 'NONE',  ( 0.08000000000000002900, -0.9849999999999999900, 0.0000000000000000000 ) ) ;
#112 = AXIS2_PLACEMENT_3D ( 'NONE', #111, #110, #109 ) ;
#113 = CARTESIAN_POINT ( 'NONE',  ( -1.721125226614714300, 0.0000000000000000000, 0.0000000000000000000 ) ) ;
#114 = CYLINDRICAL_SURFACE ( 'NONE', #146, 1.149999999999999900 ) ;
#115 = ORGANIZATION ( 'UNSPECIFIED', 'UNSPECIFIED', '' ) ;
#116 = DIRECTION ( 'NONE',  ( 1.000000000000000000, 0.0000000000000000000, 0.0000000000000000000 ) ) ;
#117 = CARTESIAN_POINT ( 'NONE',  ( 0.07999999999999996000, 0.0000000000000000000, 0.9849999999999999900 ) ) ;
#118 = CIRCLE ( 'NONE', #93, 1.149999999999999900 ) ;
#119 = CARTESIAN_POINT ( 'NONE',  ( 0.0000000000000000000, 0.0000000000000000000, 0.0000000000000000000 ) ) ;
#120 = AXIS2_PLACEMENT_3D ( 'NONE', #119, #165, #164 ) ;
#121 = CIRCLE ( 'NONE', #120, 1.149999999999999900 ) ;
#122 = FACE_BOUND ( 'NONE', #55, .T. ) ;
#123 = CARTESIAN_POINT ( 'NONE',  ( -1.721125226614714300, 0.0000000000000000000, 1.149999999999999900 ) ) ;
#124 = LINE ( 'NONE', #123, #98 ) ;
#125 = CARTESIAN_POINT ( 'NONE',  ( 0.07999999999999996000, 0.0000000000000000000, 0.0000000000000000000 ) ) ;
#126 = AXIS2_PLACEMENT_3D ( 'NONE', #125, #144, #143 ) ;
#127 = CIRCLE ( 'NONE', #126, 1.149999999999999900 ) ;
#128 = DIRECTION ( 'NONE',  ( 0.0000000000000000000, 0.0000000000000000000, 1.000000000000000000 ) ) ;
#129 = CARTESIAN_POINT ( 'NONE',  ( 0.0000000000000000000, 0.0000000000000000000, 0.0000000000000000000 ) ) ;
#130 = AXIS2_PLACEMENT_3D ( 'NONE', #129, #128, #116 ) ;
#131 = ADVANCED_BREP_SHAPE_REPRESENTATION ( 'MS-50-NY', ( #62, #130 ), #166 ) ;
#132 = DIRECTION ( 'NONE',  ( 0.0000000000000000000, 0.0000000000000000000, 1.000000000000000000 ) ) ;
#133 = DIMENSIONAL_EXPONENTS ( 1.000000000000000000, 0.0000000000000000000, 0.0000000000000000000, 0.0000000000000000000, 0.0000000000000000000, 0.0000000000000000000, 0.0000000000000000000 ) ;
#134 =( LENGTH_UNIT ( ) NAMED_UNIT ( * ) SI_UNIT ( $, .METRE. ) );
#135 = CARTESIAN_POINT ( 'NONE',  ( 0.0000000000000000000, 0.0000000000000000000, 0.9849999999999999900 ) ) ;
#136 = DIRECTION ( 'NONE',  ( 0.0000000000000000000, 0.0000000000000000000, 1.000000000000000000 ) ) ;
#137 = DIRECTION ( 'NONE',  ( -1.000000000000000000, 0.0000000000000000000, 0.0000000000000000000 ) ) ;
#138 = CARTESIAN_POINT ( 'NONE',  ( 0.0000000000000000000, 0.0000000000000000000, 0.0000000000000000000 ) ) ;
#139 = AXIS2_PLACEMENT_3D ( 'NONE', #138, #137, #136 ) ;
#140 = CIRCLE ( 'NONE', #139, 0.9849999999999999900 ) ;
#141 = CARTESIAN_POINT ( 'NONE',  ( 0.0000000000000000000, 1.206277097160143100E-016, -0.9849999999999999900 ) ) ;
#142 = DIRECTION ( 'NONE',  ( 0.0000000000000000000, 0.0000000000000000000, 1.000000000000000000 ) ) ;
#143 = DIRECTION ( 'NONE',  ( 0.0000000000000000000, 0.0000000000000000000, 1.000000000000000000 ) ) ;
#144 = DIRECTION ( 'NONE',  ( -1.000000000000000000, 0.0000000000000000000, 0.0000000000000000000 ) ) ;
#145 = DIRECTION ( 'NONE',  ( -1.000000000000000000, 0.0000000000000000000, 0.0000000000000000000 ) ) ;
#146 = AXIS2_PLACEMENT_3D ( 'NONE', #113, #145, #132 ) ;
#147 = DIRECTION ( 'NONE',  ( 0.0000000000000000000, 0.0000000000000000000, 1.000000000000000000 ) ) ;
#148 = DIRECTION ( 'NONE',  ( -1.000000000000000000, 0.0000000000000000000, 0.0000000000000000000 ) ) ;
#149 = CARTESIAN_POINT ( 'NONE',  ( -1.721125226614714300, 0.0000000000000000000, 0.0000000000000000000 ) ) ;
#150 = AXIS2_PLACEMENT_3D ( 'NONE', #149, #148, #147 ) ;
#151 = CIRCLE ( 'NONE', #157, 0.9849999999999999900 ) ;
#152 =( NAMED_UNIT ( * ) PLANE_ANGLE_UNIT ( ) SI_UNIT ( $, .RADIAN. ) );
#153 =( CONVERSION_BASED_UNIT ( 'INCH', #154 ) LENGTH_UNIT ( ) NAMED_UNIT ( #133 ) );
#154 = LENGTH_MEASURE_WITH_UNIT ( LENGTH_MEASURE( 0.02539999999999999900 ), #134 );
#155 = DIRECTION ( 'NONE',  ( -1.000000000000000000, 0.0000000000000000000, 0.0000000000000000000 ) ) ;
#156 = CARTESIAN_POINT ( 'NONE',  ( 0.07999999999999996000, 0.0000000000000000000, 0.0000000000000000000 ) ) ;
#157 = AXIS2_PLACEMENT_3D ( 'NONE', #156, #155, #142 ) ;
#158 = CYLINDRICAL_SURFACE ( 'NONE', #172, 0.9849999999999999900 ) ;
#159 = FACE_OUTER_BOUND ( 'NONE', #47, .T. ) ;
#160 = CARTESIAN_POINT ( 'NONE',  ( 0.0000000000000000000, 0.0000000000000000000, 1.149999999999999900 ) ) ;
#161 = CARTESIAN_POINT ( 'NONE',  ( 0.0000000000000000000, 1.408343819019456000E-016, -1.149999999999999900 ) ) ;
#162 = PLANE ( 'NONE',  #112 ) ;
#163 = FACE_OUTER_BOUND ( 'NONE', #40, .T. ) ;
#164 = DIRECTION ( 'NONE',  ( 0.0000000000000000000, 0.0000000000000000000, 1.000000000000000000 ) ) ;
#165 = DIRECTION ( 'NONE',  ( -1.000000000000000000, 0.0000000000000000000, 0.0000000000000000000 ) ) ;
#166 =( GEOMETRIC_REPRESENTATION_CONTEXT ( 3 ) GLOBAL_UNCERTAINTY_ASSIGNED_CONTEXT ( ( #167 ) ) GLOBAL_UNIT_ASSIGNED_CONTEXT ( ( #153, #152, #168 ) ) REPRESENTATION_CONTEXT ( 'NONE', 'WORKASPACE' ) );
#167 = UNCERTAINTY_MEASURE_WITH_UNIT (LENGTH_MEASURE( 1.000000000000000100E-005 ), #153, 'distance_accuracy_value', 'NONE');
#168 =( NAMED_UNIT ( * ) SI_UNIT ( $, .STERADIAN. ) SOLID_ANGLE_UNIT ( ) );
#169 = DIRECTION ( 'NONE',  ( 0.0000000000000000000, 0.0000000000000000000, 1.000000000000000000 ) ) ;
#170 = DIRECTION ( 'NONE',  ( -1.000000000000000000, 0.0000000000000000000, 0.0000000000000000000 ) ) ;
#171 = CARTESIAN_POINT ( 'NONE',  ( -1.721125226614714300, 0.0000000000000000000, 0.0000000000000000000 ) ) ;
#172 = AXIS2_PLACEMENT_3D ( 'NONE', #171, #170, #169 ) ;
#173 = CYLINDRICAL_SURFACE ( 'NONE', #150, 1.149999999999999900 ) ;
#174 = FACE_OUTER_BOUND ( 'NONE', #56, .T. ) ;
#175 = DIRECTION ( 'NONE',  ( -1.000000000000000000, 0.0000000000000000000, 0.0000000000000000000 ) ) ;
#176 = VECTOR ( 'NONE', #175, 39.37007874015748100 ) ;
#177 = CARTESIAN_POINT ( 'NONE',  ( -1.721125226614714300, 0.0000000000000000000, 0.9849999999999999900 ) ) ;
#178 = LINE ( 'NONE', #177, #176 ) ;
#179 = FACE_OUTER_BOUND ( 'NONE', #32, .T. ) ;
#180 = CARTESIAN_POINT ( 'NONE',  ( 0.07999999999999996000, 1.206277097160143100E-016, -0.9849999999999999900 ) ) ;
#181 = CARTESIAN_POINT ( 'NONE',  ( 0.0000000000000000000, 0.0000000000000000000, 0.0000000000000000000 ) ) ;
#182 = SHAPE_DEFINITION_REPRESENTATION ( #193, #131 ) ;
#183 = PRODUCT_RELATED_PRODUCT_CATEGORY ( 'detail', '', ( #89 ) ) ;
#184 = CC_DESIGN_SECURITY_CLASSIFICATION ( #197, ( #202 ) ) ;
#185 = CC_DESIGN_APPROVAL ( #232, ( #197 ) ) ;
#186 = APPROVAL_DATE_TIME ( #226, #232 ) ;
#187 = PERSON_AND_ORGANIZATION ( #90, #115 ) ;
#188 = CC_DESIGN_APPROVAL ( #248, ( #225 ) ) ;
#189 = PERSON_AND_ORGANIZATION ( #90, #115 ) ;
#190 = CC_DESIGN_APPROVAL ( #221, ( #202 ) ) ;
#191 = APPROVAL_DATE_TIME ( #216, #221 ) ;
#192 = CALENDAR_DATE ( 2008, 29, 3 ) ;
#193 = PRODUCT_DEFINITION_SHAPE ( 'NONE', 'NONE',  #225 ) ;
#194 = CC_DESIGN_PERSON_AND_ORGANIZATION_ASSIGNMENT ( #196, #195, ( #197 ) ) ;
#195 = PERSON_AND_ORGANIZATION_ROLE ( 'classification_officer' ) ;
#196 = PERSON_AND_ORGANIZATION ( #90, #115 ) ;
#197 = SECURITY_CLASSIFICATION ( '', '', #198 ) ;
#198 = SECURITY_CLASSIFICATION_LEVEL ( 'unclassified' ) ;
#199 = CC_DESIGN_PERSON_AND_ORGANIZATION_ASSIGNMENT ( #250, #249, ( #202 ) ) ;
#200 = APPLICATION_CONTEXT ( 'configuration controlled 3d designs of mechanical parts and assemblies' ) ;
#201 = PERSON_AND_ORGANIZATION ( #90, #115 ) ;
#202 = PRODUCT_DEFINITION_FORMATION_WITH_SPECIFIED_SOURCE ( 'ANY', '', #89, .NOT_KNOWN. ) ;
#203 = CC_DESIGN_DATE_AND_TIME_ASSIGNMENT ( #205, #204, ( #225 ) ) ;
#204 = DATE_TIME_ROLE ( 'creation_date' ) ;
#205 = DATE_AND_TIME ( #206, #207 ) ;
#206 = CALENDAR_DATE ( 2008, 29, 3 ) ;
#207 = LOCAL_TIME ( 13, 26, 27.00000000000000000, #208 ) ;
#208 = COORDINATED_UNIVERSAL_TIME_OFFSET ( 5, 30, .AHEAD. ) ;
#209 = PERSON_AND_ORGANIZATION ( #90, #115 ) ;
#210 = CC_DESIGN_DATE_AND_TIME_ASSIGNMENT ( #212, #211, ( #197 ) ) ;
#211 = DATE_TIME_ROLE ( 'classification_date' ) ;
#212 = DATE_AND_TIME ( #213, #214 ) ;
#213 = CALENDAR_DATE ( 2008, 29, 3 ) ;
#214 = LOCAL_TIME ( 13, 26, 27.00000000000000000, #215 ) ;
#215 = COORDINATED_UNIVERSAL_TIME_OFFSET ( 5, 30, .AHEAD. ) ;
#216 = DATE_AND_TIME ( #192, #217 ) ;
#217 = LOCAL_TIME ( 13, 26, 27.00000000000000000, #218 ) ;
#218 = COORDINATED_UNIVERSAL_TIME_OFFSET ( 5, 30, .AHEAD. ) ;
#219 = APPROVAL_PERSON_ORGANIZATION ( #201, #221, #220 ) ;
#220 = APPROVAL_ROLE ( '' ) ;
#221 = APPROVAL ( #222, 'UNSPECIFIED' ) ;
#222 = APPROVAL_STATUS ( 'not_yet_approved' ) ;
#223 = APPROVAL_STATUS ( 'not_yet_approved' ) ;
#224 = PERSON_AND_ORGANIZATION ( #90, #115 ) ;
#225 = PRODUCT_DEFINITION ( 'UNKNOWN', '', #202, #234 ) ;
#226 = DATE_AND_TIME ( #227, #228 ) ;
#227 = CALENDAR_DATE ( 2008, 29, 3 ) ;
#228 = LOCAL_TIME ( 13, 26, 27.00000000000000000, #229 ) ;
#229 = COORDINATED_UNIVERSAL_TIME_OFFSET ( 5, 30, .AHEAD. ) ;
#230 = APPROVAL_PERSON_ORGANIZATION ( #209, #232, #231 ) ;
#231 = APPROVAL_ROLE ( '' ) ;
#232 = APPROVAL ( #233, 'UNSPECIFIED' ) ;
#233 = APPROVAL_STATUS ( 'not_yet_approved' ) ;
#234 = DESIGN_CONTEXT ( 'detailed design', #200, 'design' ) ;
#235 = APPLICATION_PROTOCOL_DEFINITION ( 'international standard', 'config_control_design', 1994, #200 ) ;
#236 = APPROVAL_DATE_TIME ( #237, #248 ) ;
#237 = DATE_AND_TIME ( #238, #239 ) ;
#238 = CALENDAR_DATE ( 2008, 29, 3 ) ;
#239 = LOCAL_TIME ( 13, 26, 27.00000000000000000, #245 ) ;
#240 = CC_DESIGN_PERSON_AND_ORGANIZATION_ASSIGNMENT ( #244, #241, ( #89 ) ) ;
#241 = PERSON_AND_ORGANIZATION_ROLE ( 'design_owner' ) ;
#242 = CC_DESIGN_PERSON_AND_ORGANIZATION_ASSIGNMENT ( #187, #243, ( #225 ) ) ;
#243 = PERSON_AND_ORGANIZATION_ROLE ( 'creator' ) ;
#244 = PERSON_AND_ORGANIZATION ( #90, #115 ) ;
#245 = COORDINATED_UNIVERSAL_TIME_OFFSET ( 5, 30, .AHEAD. ) ;
#246 = APPROVAL_PERSON_ORGANIZATION ( #224, #248, #247 ) ;
#247 = APPROVAL_ROLE ( '' ) ;
#248 = APPROVAL ( #223, 'UNSPECIFIED' ) ;
#249 = PERSON_AND_ORGANIZATION_ROLE ( 'design_supplier' ) ;
#250 = PERSON_AND_ORGANIZATION ( #90, #115 ) ;
#251 = CC_DESIGN_PERSON_AND_ORGANIZATION_ASSIGNMENT ( #189, #252, ( #202 ) ) ;
#252 = PERSON_AND_ORGANIZATION_ROLE ( 'creator' ) ;
ENDSEC;
END-ISO-10303-21;
