ISO-10303-21;
HEADER;
FILE_DESCRIPTION (( 'STEP AP203' ),
    '1' );
FILE_NAME ('SR-11-NY.STEP',
    '2008-03-29T08:05:22',
    ( '' ),
    ( '' ),
    'SwSTEP 2.0',
    'SolidWorks 2007',
    '' );
FILE_SCHEMA (( 'CONFIG_CONTROL_DESIGN' ));
ENDSEC;

DATA;
#1 = CLOSED_SHELL ( 'NONE', ( #126, #162, #64, #7, #124, #138 ) ) ;
#2 = ORIENTED_EDGE ( 'NONE', *, *, #133, .T. ) ;
#3 = EDGE_LOOP ( 'NONE', ( #4, #6 ) ) ;
#4 = ORIENTED_EDGE ( 'NONE', *, *, #5, .F. ) ;
#5 = EDGE_CURVE ( 'NONE', #163, #47, #42, .T. ) ;
#6 = ORIENTED_EDGE ( 'NONE', *, *, #44, .F. ) ;
#7 = ADVANCED_FACE ( 'NONE', ( #43 ), #36, .T. ) ;
#8 = DESIGN_CONTEXT ( 'detailed design', #10, 'design' ) ;
#9 = APPLICATION_PROTOCOL_DEFINITION ( 'international standard', 'config_control_design', 1994, #10 ) ;
#10 = APPLICATION_CONTEXT ( 'configuration controlled 3d designs of mechanical parts and assemblies' ) ;
#11 = ORIENTED_EDGE ( 'NONE', *, *, #185, .F. ) ;
#12 = EDGE_LOOP ( 'NONE', ( #2, #181, #13, #16 ) ) ;
#13 = ORIENTED_EDGE ( 'NONE', *, *, #14, .F. ) ;
#14 = EDGE_CURVE ( 'NONE', #15, #33, #153, .T. ) ;
#15 = VERTEX_POINT ( 'NONE', #148 ) ;
#16 = ORIENTED_EDGE ( 'NONE', *, *, #48, .F. ) ;
#17 = VERTEX_POINT ( 'NONE', #147 ) ;
#18 = UNCERTAINTY_MEASURE_WITH_UNIT (LENGTH_MEASURE( 1.000000000000000100E-005 ), #21, 'distance_accuracy_value', 'NONE');
#19 =( NAMED_UNIT ( * ) SI_UNIT ( $, .STERADIAN. ) SOLID_ANGLE_UNIT ( ) );
#20 =( NAMED_UNIT ( * ) PLANE_ANGLE_UNIT ( ) SI_UNIT ( $, .RADIAN. ) );
#21 =( CONVERSION_BASED_UNIT ( 'INCH', #22 ) LENGTH_UNIT ( ) NAMED_UNIT ( #23 ) );
#22 = LENGTH_MEASURE_WITH_UNIT ( LENGTH_MEASURE( 0.02539999999999999900 ), #24 );
#23 = DIMENSIONAL_EXPONENTS ( 1.000000000000000000, 0.0000000000000000000, 0.0000000000000000000, 0.0000000000000000000, 0.0000000000000000000, 0.0000000000000000000, 0.0000000000000000000 ) ;
#24 =( LENGTH_UNIT ( ) NAMED_UNIT ( * ) SI_UNIT ( $, .METRE. ) );
#25 = DIRECTION ( 'NONE',  ( -1.000000000000000000, 0.0000000000000000000, 0.0000000000000000000 ) ) ;
#26 = VECTOR ( 'NONE', #25, 39.37007874015748100 ) ;
#27 = CARTESIAN_POINT ( 'NONE',  ( -1.721125226614714300, 0.0000000000000000000, 0.3649999999999999900 ) ) ;
#28 = LINE ( 'NONE', #27, #26 ) ;
#29 = DIRECTION ( 'NONE',  ( 0.0000000000000000000, 0.0000000000000000000, 1.000000000000000000 ) ) ;
#30 = DIRECTION ( 'NONE',  ( -1.000000000000000000, 0.0000000000000000000, 0.0000000000000000000 ) ) ;
#31 = AXIS2_PLACEMENT_3D ( 'NONE', #165, #30, #29 ) ;
#32 = CIRCLE ( 'NONE', #31, 0.4450000000000000100 ) ;
#33 = VERTEX_POINT ( 'NONE', #146 ) ;
#34 = EDGE_CURVE ( 'NONE', #130, #47, #145, .T. ) ;
#35 = CARTESIAN_POINT ( 'NONE',  ( -1.721125226614714300, 0.0000000000000000000, 0.0000000000000000000 ) ) ;
#36 = CYLINDRICAL_SURFACE ( 'NONE', #155, 0.4450000000000000100 ) ;
#37 = DIRECTION ( 'NONE',  ( -1.000000000000000000, 0.0000000000000000000, 0.0000000000000000000 ) ) ;
#38 = DIRECTION ( 'NONE',  ( 0.0000000000000000000, 0.0000000000000000000, 1.000000000000000000 ) ) ;
#39 = DIRECTION ( 'NONE',  ( -1.000000000000000000, 0.0000000000000000000, 0.0000000000000000000 ) ) ;
#40 = CARTESIAN_POINT ( 'NONE',  ( 0.0000000000000000000, 0.0000000000000000000, 0.0000000000000000000 ) ) ;
#41 = AXIS2_PLACEMENT_3D ( 'NONE', #40, #39, #38 ) ;
#42 = CIRCLE ( 'NONE', #41, 0.3649999999999999900 ) ;
#43 = FACE_OUTER_BOUND ( 'NONE', #135, .T. ) ;
#44 = EDGE_CURVE ( 'NONE', #47, #163, #116, .T. ) ;
#45 = ORIENTED_EDGE ( 'NONE', *, *, #159, .F. ) ;
#46 = ORIENTED_EDGE ( 'NONE', *, *, #185, .T. ) ;
#47 = VERTEX_POINT ( 'NONE', #111 ) ;
#48 = EDGE_CURVE ( 'NONE', #134, #15, #63, .T. ) ;
#49 = ORIENTED_EDGE ( 'NONE', *, *, #141, .T. ) ;
#50 = PLANE ( 'NONE',  #110 ) ;
#51 = FACE_OUTER_BOUND ( 'NONE', #161, .T. ) ;
#52 = FACE_BOUND ( 'NONE', #125, .T. ) ;
#53 = DIRECTION ( 'NONE',  ( 0.0000000000000000000, 0.0000000000000000000, 1.000000000000000000 ) ) ;
#54 = DIRECTION ( 'NONE',  ( -1.000000000000000000, 0.0000000000000000000, 0.0000000000000000000 ) ) ;
#55 = CARTESIAN_POINT ( 'NONE',  ( 1.285836671513496700E-017, -0.3649999999999999900, 0.0000000000000000000 ) ) ;
#56 = AXIS2_PLACEMENT_3D ( 'NONE', #55, #54, #53 ) ;
#57 = PLANE ( 'NONE',  #56 ) ;
#58 = FACE_BOUND ( 'NONE', #3, .T. ) ;
#59 = FACE_OUTER_BOUND ( 'NONE', #65, .T. ) ;
#60 = DIRECTION ( 'NONE',  ( -1.000000000000000000, 0.0000000000000000000, 0.0000000000000000000 ) ) ;
#61 = VECTOR ( 'NONE', #60, 39.37007874015748100 ) ;
#62 = CARTESIAN_POINT ( 'NONE',  ( -1.721125226614714300, 0.0000000000000000000, 0.4450000000000000100 ) ) ;
#63 = LINE ( 'NONE', #62, #61 ) ;
#64 = ADVANCED_FACE ( 'NONE', ( #59, #58 ), #57, .T. ) ;
#65 = EDGE_LOOP ( 'NONE', ( #164, #49 ) ) ;
#66 = DIRECTION ( 'NONE',  ( 1.000000000000000000, 0.0000000000000000000, 0.0000000000000000000 ) ) ;
#67 = DIRECTION ( 'NONE',  ( 0.0000000000000000000, 0.0000000000000000000, 1.000000000000000000 ) ) ;
#68 = CARTESIAN_POINT ( 'NONE',  ( 0.0000000000000000000, 0.0000000000000000000, 0.0000000000000000000 ) ) ;
#69 = CC_DESIGN_PERSON_AND_ORGANIZATION_ASSIGNMENT ( #71, #70, ( #74 ) ) ;
#70 = PERSON_AND_ORGANIZATION_ROLE ( 'design_owner' ) ;
#71 = PERSON_AND_ORGANIZATION ( #73, #72 ) ;
#72 = ORGANIZATION ( 'UNSPECIFIED', 'UNSPECIFIED', '' ) ;
#73 = PERSON ( 'UNSPECIFIED', 'UNSPECIFIED', 'UNSPECIFIED', ('UNSPECIFIED'), ('UNSPECIFIED'), ('UNSPECIFIED') ) ;
#74 = PRODUCT ( 'SR-11-NY', 'SR-11-NY', '', ( #75 ) ) ;
#75 = MECHANICAL_CONTEXT ( 'NONE', #157, 'mechanical' ) ;
#76 = DIRECTION ( 'NONE',  ( 0.0000000000000000000, 0.0000000000000000000, 1.000000000000000000 ) ) ;
#77 = DIRECTION ( 'NONE',  ( -1.000000000000000000, 0.0000000000000000000, 0.0000000000000000000 ) ) ;
#78 = AXIS2_PLACEMENT_3D ( 'NONE', #85, #77, #76 ) ;
#79 = CIRCLE ( 'NONE', #78, 0.4450000000000000100 ) ;
#80 = CIRCLE ( 'NONE', #180, 0.3649999999999999900 ) ;
#81 = DIRECTION ( 'NONE',  ( 0.0000000000000000000, 0.0000000000000000000, 1.000000000000000000 ) ) ;
#82 = DIRECTION ( 'NONE',  ( -1.000000000000000000, 0.0000000000000000000, 0.0000000000000000000 ) ) ;
#83 = AXIS2_PLACEMENT_3D ( 'NONE', #86, #82, #81 ) ;
#84 = CYLINDRICAL_SURFACE ( 'NONE', #83, 0.3649999999999999900 ) ;
#85 = CARTESIAN_POINT ( 'NONE',  ( 0.0000000000000000000, 0.0000000000000000000, 0.0000000000000000000 ) ) ;
#86 = CARTESIAN_POINT ( 'NONE',  ( -1.721125226614714300, 0.0000000000000000000, 0.0000000000000000000 ) ) ;
#87 = FACE_OUTER_BOUND ( 'NONE', #139, .T. ) ;
#88 = CARTESIAN_POINT ( 'NONE',  ( 0.07999999999999996000, 0.0000000000000000000, 0.4450000000000000100 ) ) ;
#89 = DIRECTION ( 'NONE',  ( 0.0000000000000000000, 0.0000000000000000000, 1.000000000000000000 ) ) ;
#90 = DIRECTION ( 'NONE',  ( -1.000000000000000000, 0.0000000000000000000, 0.0000000000000000000 ) ) ;
#91 = CARTESIAN_POINT ( 'NONE',  ( 0.07999999999999996000, 0.0000000000000000000, 0.0000000000000000000 ) ) ;
#92 = AXIS2_PLACEMENT_3D ( 'NONE', #91, #90, #89 ) ;
#93 = CIRCLE ( 'NONE', #92, 0.4450000000000000100 ) ;
#94 = CARTESIAN_POINT ( 'NONE',  ( 0.07999999999999996000, 0.0000000000000000000, 0.3649999999999999900 ) ) ;
#95 = CARTESIAN_POINT ( 'NONE',  ( 0.07999999999999996000, 4.469960816887839200E-017, -0.3649999999999999900 ) ) ;
#96 = DIRECTION ( 'NONE',  ( 0.0000000000000000000, 0.0000000000000000000, 1.000000000000000000 ) ) ;
#97 = DIRECTION ( 'NONE',  ( -1.000000000000000000, 0.0000000000000000000, 0.0000000000000000000 ) ) ;
#98 = AXIS2_PLACEMENT_3D ( 'NONE', #104, #97, #96 ) ;
#99 = CIRCLE ( 'NONE', #98, 0.3649999999999999900 ) ;
#100 = DIRECTION ( 'NONE',  ( 0.0000000000000000000, 0.0000000000000000000, 1.000000000000000000 ) ) ;
#101 = DIRECTION ( 'NONE',  ( -1.000000000000000000, 0.0000000000000000000, 0.0000000000000000000 ) ) ;
#102 = CARTESIAN_POINT ( 'NONE',  ( -1.721125226614714300, 0.0000000000000000000, 0.0000000000000000000 ) ) ;
#103 = AXIS2_PLACEMENT_3D ( 'NONE', #102, #101, #100 ) ;
#104 = CARTESIAN_POINT ( 'NONE',  ( 0.07999999999999996000, 0.0000000000000000000, 0.0000000000000000000 ) ) ;
#105 = CYLINDRICAL_SURFACE ( 'NONE', #103, 0.3649999999999999900 ) ;
#106 = FACE_OUTER_BOUND ( 'NONE', #127, .T. ) ;
#107 = DIRECTION ( 'NONE',  ( 0.0000000000000000000, 0.0000000000000000000, -1.000000000000000000 ) ) ;
#108 = DIRECTION ( 'NONE',  ( 1.000000000000000000, 0.0000000000000000000, 0.0000000000000000000 ) ) ;
#109 = CARTESIAN_POINT ( 'NONE',  ( 0.08000000000000000200, -0.3649999999999999900, 0.0000000000000000000 ) ) ;
#110 = AXIS2_PLACEMENT_3D ( 'NONE', #109, #108, #107 ) ;
#111 = CARTESIAN_POINT ( 'NONE',  ( 0.0000000000000000000, 4.469960816887839200E-017, -0.3649999999999999900 ) ) ;
#112 = DIRECTION ( 'NONE',  ( 0.0000000000000000000, 0.0000000000000000000, 1.000000000000000000 ) ) ;
#113 = DIRECTION ( 'NONE',  ( -1.000000000000000000, 0.0000000000000000000, 0.0000000000000000000 ) ) ;
#114 = CARTESIAN_POINT ( 'NONE',  ( 0.0000000000000000000, 0.0000000000000000000, 0.0000000000000000000 ) ) ;
#115 = AXIS2_PLACEMENT_3D ( 'NONE', #114, #113, #112 ) ;
#116 = CIRCLE ( 'NONE', #115, 0.3649999999999999900 ) ;
#117 = DIRECTION ( 'NONE',  ( -1.000000000000000000, 0.0000000000000000000, 0.0000000000000000000 ) ) ;
#118 = VECTOR ( 'NONE', #117, 39.37007874015748100 ) ;
#119 = CARTESIAN_POINT ( 'NONE',  ( -1.721125226614714300, 4.469960816887839200E-017, -0.3649999999999999900 ) ) ;
#120 = ORIENTED_EDGE ( 'NONE', *, *, #5, .T. ) ;
#121 = MANIFOLD_SOLID_BREP ( 'NONE', #1 ) ;
#122 = ORIENTED_EDGE ( 'NONE', *, *, #48, .T. ) ;
#123 = ORIENTED_EDGE ( 'NONE', *, *, #141, .F. ) ;
#124 = ADVANCED_FACE ( 'NONE', ( #52, #51 ), #50, .T. ) ;
#125 = EDGE_LOOP ( 'NONE', ( #158, #160 ) ) ;
#126 = ADVANCED_FACE ( 'NONE', ( #106 ), #105, .F. ) ;
#127 = EDGE_LOOP ( 'NONE', ( #128, #132, #186, #11 ) ) ;
#128 = ORIENTED_EDGE ( 'NONE', *, *, #129, .F. ) ;
#129 = EDGE_CURVE ( 'NONE', #130, #131, #99, .T. ) ;
#130 = VERTEX_POINT ( 'NONE', #95 ) ;
#131 = VERTEX_POINT ( 'NONE', #94 ) ;
#132 = ORIENTED_EDGE ( 'NONE', *, *, #34, .T. ) ;
#133 = EDGE_CURVE ( 'NONE', #134, #17, #93, .T. ) ;
#134 = VERTEX_POINT ( 'NONE', #88 ) ;
#135 = EDGE_LOOP ( 'NONE', ( #136, #183, #122, #123 ) ) ;
#136 = ORIENTED_EDGE ( 'NONE', *, *, #182, .F. ) ;
#137 = ORIENTED_EDGE ( 'NONE', *, *, #184, .F. ) ;
#138 = ADVANCED_FACE ( 'NONE', ( #87 ), #84, .F. ) ;
#139 = EDGE_LOOP ( 'NONE', ( #140, #45, #46, #120 ) ) ;
#140 = ORIENTED_EDGE ( 'NONE', *, *, #34, .F. ) ;
#141 = EDGE_CURVE ( 'NONE', #33, #15, #79, .T. ) ;
#142 = AXIS2_PLACEMENT_3D ( 'NONE', #68, #67, #66 ) ;
#143 = ADVANCED_BREP_SHAPE_REPRESENTATION ( 'SR-11-NY', ( #121, #142 ), #144 ) ;
#144 =( GEOMETRIC_REPRESENTATION_CONTEXT ( 3 ) GLOBAL_UNCERTAINTY_ASSIGNED_CONTEXT ( ( #18 ) ) GLOBAL_UNIT_ASSIGNED_CONTEXT ( ( #21, #20, #19 ) ) REPRESENTATION_CONTEXT ( 'NONE', 'WORKASPACE' ) );
#145 = LINE ( 'NONE', #119, #118 ) ;
#146 = CARTESIAN_POINT ( 'NONE',  ( 0.0000000000000000000, 5.449678256205722000E-017, -0.4450000000000000100 ) ) ;
#147 = CARTESIAN_POINT ( 'NONE',  ( 0.07999999999999996000, 5.449678256205722000E-017, -0.4450000000000000100 ) ) ;
#148 = CARTESIAN_POINT ( 'NONE',  ( 0.0000000000000000000, 0.0000000000000000000, 0.4450000000000000100 ) ) ;
#149 = DIRECTION ( 'NONE',  ( 0.0000000000000000000, 0.0000000000000000000, 1.000000000000000000 ) ) ;
#150 = DIRECTION ( 'NONE',  ( -1.000000000000000000, 0.0000000000000000000, 0.0000000000000000000 ) ) ;
#151 = CARTESIAN_POINT ( 'NONE',  ( 0.0000000000000000000, 0.0000000000000000000, 0.0000000000000000000 ) ) ;
#152 = AXIS2_PLACEMENT_3D ( 'NONE', #151, #150, #149 ) ;
#153 = CIRCLE ( 'NONE', #152, 0.4450000000000000100 ) ;
#154 = DIRECTION ( 'NONE',  ( 0.0000000000000000000, 0.0000000000000000000, 1.000000000000000000 ) ) ;
#155 = AXIS2_PLACEMENT_3D ( 'NONE', #35, #37, #154 ) ;
#156 = APPLICATION_PROTOCOL_DEFINITION ( 'international standard', 'config_control_design', 1994, #157 ) ;
#157 = APPLICATION_CONTEXT ( 'configuration controlled 3d designs of mechanical parts and assemblies' ) ;
#158 = ORIENTED_EDGE ( 'NONE', *, *, #159, .T. ) ;
#159 = EDGE_CURVE ( 'NONE', #131, #130, #80, .T. ) ;
#160 = ORIENTED_EDGE ( 'NONE', *, *, #129, .T. ) ;
#161 = EDGE_LOOP ( 'NONE', ( #187, #137 ) ) ;
#162 = ADVANCED_FACE ( 'NONE', ( #176 ), #175, .T. ) ;
#163 = VERTEX_POINT ( 'NONE', #170 ) ;
#164 = ORIENTED_EDGE ( 'NONE', *, *, #14, .T. ) ;
#165 = CARTESIAN_POINT ( 'NONE',  ( 0.07999999999999996000, 0.0000000000000000000, 0.0000000000000000000 ) ) ;
#166 = DIRECTION ( 'NONE',  ( -1.000000000000000000, 0.0000000000000000000, 0.0000000000000000000 ) ) ;
#167 = VECTOR ( 'NONE', #166, 39.37007874015748100 ) ;
#168 = CARTESIAN_POINT ( 'NONE',  ( -1.721125226614714300, 5.449678256205722000E-017, -0.4450000000000000100 ) ) ;
#169 = LINE ( 'NONE', #168, #167 ) ;
#170 = CARTESIAN_POINT ( 'NONE',  ( 0.0000000000000000000, 0.0000000000000000000, 0.3649999999999999900 ) ) ;
#171 = DIRECTION ( 'NONE',  ( 0.0000000000000000000, 0.0000000000000000000, 1.000000000000000000 ) ) ;
#172 = DIRECTION ( 'NONE',  ( -1.000000000000000000, 0.0000000000000000000, 0.0000000000000000000 ) ) ;
#173 = CARTESIAN_POINT ( 'NONE',  ( -1.721125226614714300, 0.0000000000000000000, 0.0000000000000000000 ) ) ;
#174 = AXIS2_PLACEMENT_3D ( 'NONE', #173, #172, #171 ) ;
#175 = CYLINDRICAL_SURFACE ( 'NONE', #174, 0.4450000000000000100 ) ;
#176 = FACE_OUTER_BOUND ( 'NONE', #12, .T. ) ;
#177 = DIRECTION ( 'NONE',  ( 0.0000000000000000000, 0.0000000000000000000, 1.000000000000000000 ) ) ;
#178 = DIRECTION ( 'NONE',  ( -1.000000000000000000, 0.0000000000000000000, 0.0000000000000000000 ) ) ;
#179 = CARTESIAN_POINT ( 'NONE',  ( 0.07999999999999996000, 0.0000000000000000000, 0.0000000000000000000 ) ) ;
#180 = AXIS2_PLACEMENT_3D ( 'NONE', #179, #178, #177 ) ;
#181 = ORIENTED_EDGE ( 'NONE', *, *, #182, .T. ) ;
#182 = EDGE_CURVE ( 'NONE', #17, #33, #169, .T. ) ;
#183 = ORIENTED_EDGE ( 'NONE', *, *, #184, .T. ) ;
#184 = EDGE_CURVE ( 'NONE', #17, #134, #32, .T. ) ;
#185 = EDGE_CURVE ( 'NONE', #131, #163, #28, .T. ) ;
#186 = ORIENTED_EDGE ( 'NONE', *, *, #44, .T. ) ;
#187 = ORIENTED_EDGE ( 'NONE', *, *, #133, .F. ) ;
#188 = DATE_TIME_ROLE ( 'creation_date' ) ;
#189 = DATE_AND_TIME ( #190, #191 ) ;
#190 = CALENDAR_DATE ( 2008, 29, 3 ) ;
#191 = LOCAL_TIME ( 13, 35, 22.00000000000000000, #192 ) ;
#192 = COORDINATED_UNIVERSAL_TIME_OFFSET ( 5, 30, .AHEAD. ) ;
#193 = SHAPE_DEFINITION_REPRESENTATION ( #194, #143 ) ;
#194 = PRODUCT_DEFINITION_SHAPE ( 'NONE', 'NONE',  #214 ) ;
#195 = PRODUCT_RELATED_PRODUCT_CATEGORY ( 'detail', '', ( #74 ) ) ;
#196 = CC_DESIGN_SECURITY_CLASSIFICATION ( #218, ( #227 ) ) ;
#197 = COORDINATED_UNIVERSAL_TIME_OFFSET ( 5, 30, .AHEAD. ) ;
#198 = APPROVAL_PERSON_ORGANIZATION ( #215, #213, #212 ) ;
#199 = CC_DESIGN_APPROVAL ( #207, ( #218 ) ) ;
#200 = APPROVAL_DATE_TIME ( #201, #207 ) ;
#201 = DATE_AND_TIME ( #202, #203 ) ;
#202 = CALENDAR_DATE ( 2008, 29, 3 ) ;
#203 = LOCAL_TIME ( 13, 35, 22.00000000000000000, #204 ) ;
#204 = COORDINATED_UNIVERSAL_TIME_OFFSET ( 5, 30, .AHEAD. ) ;
#205 = APPROVAL_PERSON_ORGANIZATION ( #209, #207, #206 ) ;
#206 = APPROVAL_ROLE ( '' ) ;
#207 = APPROVAL ( #208, 'UNSPECIFIED' ) ;
#208 = APPROVAL_STATUS ( 'not_yet_approved' ) ;
#209 = PERSON_AND_ORGANIZATION ( #73, #72 ) ;
#210 = CC_DESIGN_PERSON_AND_ORGANIZATION_ASSIGNMENT ( #252, #211, ( #214 ) ) ;
#211 = PERSON_AND_ORGANIZATION_ROLE ( 'creator' ) ;
#212 = APPROVAL_ROLE ( '' ) ;
#213 = APPROVAL ( #217, 'UNSPECIFIED' ) ;
#214 = PRODUCT_DEFINITION ( 'UNKNOWN', '', #227, #8 ) ;
#215 = PERSON_AND_ORGANIZATION ( #73, #72 ) ;
#216 = DATE_AND_TIME ( #225, #226 ) ;
#217 = APPROVAL_STATUS ( 'not_yet_approved' ) ;
#218 = SECURITY_CLASSIFICATION ( '', '', #219 ) ;
#219 = SECURITY_CLASSIFICATION_LEVEL ( 'unclassified' ) ;
#220 = CC_DESIGN_PERSON_AND_ORGANIZATION_ASSIGNMENT ( #222, #221, ( #227 ) ) ;
#221 = PERSON_AND_ORGANIZATION_ROLE ( 'design_supplier' ) ;
#222 = PERSON_AND_ORGANIZATION ( #73, #72 ) ;
#223 = CC_DESIGN_APPROVAL ( #213, ( #214 ) ) ;
#224 = APPROVAL_DATE_TIME ( #216, #213 ) ;
#225 = CALENDAR_DATE ( 2008, 29, 3 ) ;
#226 = LOCAL_TIME ( 13, 35, 22.00000000000000000, #197 ) ;
#227 = PRODUCT_DEFINITION_FORMATION_WITH_SPECIFIED_SOURCE ( 'ANY', '', #74, .NOT_KNOWN. ) ;
#228 = CC_DESIGN_DATE_AND_TIME_ASSIGNMENT ( #189, #188, ( #214 ) ) ;
#229 = CC_DESIGN_DATE_AND_TIME_ASSIGNMENT ( #231, #230, ( #218 ) ) ;
#230 = DATE_TIME_ROLE ( 'classification_date' ) ;
#231 = DATE_AND_TIME ( #232, #233 ) ;
#232 = CALENDAR_DATE ( 2008, 29, 3 ) ;
#233 = LOCAL_TIME ( 13, 35, 22.00000000000000000, #234 ) ;
#234 = COORDINATED_UNIVERSAL_TIME_OFFSET ( 5, 30, .AHEAD. ) ;
#235 = CC_DESIGN_PERSON_AND_ORGANIZATION_ASSIGNMENT ( #237, #236, ( #218 ) ) ;
#236 = PERSON_AND_ORGANIZATION_ROLE ( 'classification_officer' ) ;
#237 = PERSON_AND_ORGANIZATION ( #73, #72 ) ;
#238 = DATE_AND_TIME ( #239, #240 ) ;
#239 = CALENDAR_DATE ( 2008, 29, 3 ) ;
#240 = LOCAL_TIME ( 13, 35, 22.00000000000000000, #241 ) ;
#241 = COORDINATED_UNIVERSAL_TIME_OFFSET ( 5, 30, .AHEAD. ) ;
#242 = APPROVAL_PERSON_ORGANIZATION ( #246, #244, #243 ) ;
#243 = APPROVAL_ROLE ( '' ) ;
#244 = APPROVAL ( #245, 'UNSPECIFIED' ) ;
#245 = APPROVAL_STATUS ( 'not_yet_approved' ) ;
#246 = PERSON_AND_ORGANIZATION ( #73, #72 ) ;
#247 = CC_DESIGN_PERSON_AND_ORGANIZATION_ASSIGNMENT ( #249, #248, ( #227 ) ) ;
#248 = PERSON_AND_ORGANIZATION_ROLE ( 'creator' ) ;
#249 = PERSON_AND_ORGANIZATION ( #73, #72 ) ;
#250 = CC_DESIGN_APPROVAL ( #244, ( #227 ) ) ;
#251 = APPROVAL_DATE_TIME ( #238, #244 ) ;
#252 = PERSON_AND_ORGANIZATION ( #73, #72 ) ;
ENDSEC;
END-ISO-10303-21;
