ISO-10303-21;
HEADER;
FILE_DESCRIPTION (( 'STEP AP203' ),
    '1' );
FILE_NAME ('SR-16-NY.STEP',
    '2008-03-29T08:09:57',
    ( '' ),
    ( '' ),
    'SwSTEP 2.0',
    'SolidWorks 2007',
    '' );
FILE_SCHEMA (( 'CONFIG_CONTROL_DESIGN' ));
ENDSEC;

DATA;
#1 = DIRECTION ( 'NONE',  ( -1.000000000000000000, 0.0000000000000000000, 0.0000000000000000000 ) ) ;
#2 = DIRECTION ( 'NONE',  ( 0.0000000000000000000, 0.0000000000000000000, 1.000000000000000000 ) ) ;
#3 = PERSON_AND_ORGANIZATION ( #86, #85 ) ;
#4 = CC_DESIGN_PERSON_AND_ORGANIZATION_ASSIGNMENT ( #3, #5, ( #224 ) ) ;
#5 = PERSON_AND_ORGANIZATION_ROLE ( 'design_supplier' ) ;
#6 = ORIENTED_EDGE ( 'NONE', *, *, #15, .F. ) ;
#7 = ORIENTED_EDGE ( 'NONE', *, *, #56, .F. ) ;
#8 = VERTEX_POINT ( 'NONE', #72 ) ;
#9 = VERTEX_POINT ( 'NONE', #71 ) ;
#10 = CLOSED_SHELL ( 'NONE', ( #36, #21, #64, #11, #27, #76 ) ) ;
#11 = ADVANCED_FACE ( 'NONE', ( #70 ), #66, .T. ) ;
#12 = ORIENTED_EDGE ( 'NONE', *, *, #13, .T. ) ;
#13 = EDGE_CURVE ( 'NONE', #74, #9, #187, .T. ) ;
#14 = ORIENTED_EDGE ( 'NONE', *, *, #20, .T. ) ;
#15 = EDGE_CURVE ( 'NONE', #8, #57, #231, .T. ) ;
#16 = EDGE_LOOP ( 'NONE', ( #45, #23 ) ) ;
#17 = ORIENTED_EDGE ( 'NONE', *, *, #18, .F. ) ;
#18 = EDGE_CURVE ( 'NONE', #57, #8, #130, .T. ) ;
#19 = ORIENTED_EDGE ( 'NONE', *, *, #20, .F. ) ;
#20 = EDGE_CURVE ( 'NONE', #9, #57, #157, .T. ) ;
#21 = ADVANCED_FACE ( 'NONE', ( #79 ), #115, .T. ) ;
#22 = EDGE_LOOP ( 'NONE', ( #40, #58 ) ) ;
#23 = ORIENTED_EDGE ( 'NONE', *, *, #48, .F. ) ;
#24 = EDGE_CURVE ( 'NONE', #74, #8, #183, .T. ) ;
#25 = ORIENTED_EDGE ( 'NONE', *, *, #55, .T. ) ;
#26 = ORIENTED_EDGE ( 'NONE', *, *, #46, .T. ) ;
#27 = ADVANCED_FACE ( 'NONE', ( #208, #207 ), #206, .T. ) ;
#28 = EDGE_LOOP ( 'NONE', ( #29, #59 ) ) ;
#29 = ORIENTED_EDGE ( 'NONE', *, *, #56, .T. ) ;
#30 = EDGE_LOOP ( 'NONE', ( #61, #62, #17, #19 ) ) ;
#31 = ORIENTED_EDGE ( 'NONE', *, *, #63, .F. ) ;
#32 = EDGE_LOOP ( 'NONE', ( #33, #53, #52, #47 ) ) ;
#33 = ORIENTED_EDGE ( 'NONE', *, *, #34, .F. ) ;
#34 = EDGE_CURVE ( 'NONE', #35, #37, #229, .T. ) ;
#35 = VERTEX_POINT ( 'NONE', #123 ) ;
#36 = ADVANCED_FACE ( 'NONE', ( #122 ), #121, .F. ) ;
#37 = VERTEX_POINT ( 'NONE', #201 ) ;
#38 = SECURITY_CLASSIFICATION ( '', '', #39 ) ;
#39 = SECURITY_CLASSIFICATION_LEVEL ( 'unclassified' ) ;
#40 = ORIENTED_EDGE ( 'NONE', *, *, #18, .T. ) ;
#41 = ORIENTED_EDGE ( 'NONE', *, *, #24, .F. ) ;
#42 = EDGE_LOOP ( 'NONE', ( #43, #7, #25, #26 ) ) ;
#43 = ORIENTED_EDGE ( 'NONE', *, *, #50, .F. ) ;
#44 = EDGE_LOOP ( 'NONE', ( #41, #12, #14, #6 ) ) ;
#45 = ORIENTED_EDGE ( 'NONE', *, *, #46, .F. ) ;
#46 = EDGE_CURVE ( 'NONE', #49, #51, #200, .T. ) ;
#47 = ORIENTED_EDGE ( 'NONE', *, *, #55, .F. ) ;
#48 = EDGE_CURVE ( 'NONE', #51, #49, #107, .T. ) ;
#49 = VERTEX_POINT ( 'NONE', #111 ) ;
#50 = EDGE_CURVE ( 'NONE', #35, #51, #110, .T. ) ;
#51 = VERTEX_POINT ( 'NONE', #94 ) ;
#52 = ORIENTED_EDGE ( 'NONE', *, *, #48, .T. ) ;
#53 = ORIENTED_EDGE ( 'NONE', *, *, #50, .T. ) ;
#54 = MANIFOLD_SOLID_BREP ( 'NONE', #10 ) ;
#55 = EDGE_CURVE ( 'NONE', #37, #49, #95, .T. ) ;
#56 = EDGE_CURVE ( 'NONE', #37, #35, #103, .T. ) ;
#57 = VERTEX_POINT ( 'NONE', #134 ) ;
#58 = ORIENTED_EDGE ( 'NONE', *, *, #15, .T. ) ;
#59 = ORIENTED_EDGE ( 'NONE', *, *, #34, .T. ) ;
#60 = EDGE_LOOP ( 'NONE', ( #31, #75 ) ) ;
#61 = ORIENTED_EDGE ( 'NONE', *, *, #63, .T. ) ;
#62 = ORIENTED_EDGE ( 'NONE', *, *, #24, .T. ) ;
#63 = EDGE_CURVE ( 'NONE', #9, #74, #133, .T. ) ;
#64 = ADVANCED_FACE ( 'NONE', ( #180, #179 ), #178, .T. ) ;
#65 = AXIS2_PLACEMENT_3D ( 'NONE', #69, #1, #2 ) ;
#66 = CYLINDRICAL_SURFACE ( 'NONE', #65, 0.5300000000000000300 ) ;
#67 = PERSON_AND_ORGANIZATION_ROLE ( 'classification_officer' ) ;
#68 = PERSON_AND_ORGANIZATION ( #86, #85 ) ;
#69 = CARTESIAN_POINT ( 'NONE',  ( -1.721125226614714300, 0.0000000000000000000, 0.0000000000000000000 ) ) ;
#70 = FACE_OUTER_BOUND ( 'NONE', #44, .T. ) ;
#71 = CARTESIAN_POINT ( 'NONE',  ( 0.07999999999999996000, 0.0000000000000000000, 0.5300000000000000300 ) ) ;
#72 = CARTESIAN_POINT ( 'NONE',  ( 0.0000000000000000000, 6.490628035480972400E-017, -0.5300000000000000300 ) ) ;
#73 = CC_DESIGN_PERSON_AND_ORGANIZATION_ASSIGNMENT ( #68, #67, ( #38 ) ) ;
#74 = VERTEX_POINT ( 'NONE', #195 ) ;
#75 = ORIENTED_EDGE ( 'NONE', *, *, #13, .F. ) ;
#76 = ADVANCED_FACE ( 'NONE', ( #194 ), #139, .F. ) ;
#77 = CARTESIAN_POINT ( 'NONE',  ( 0.07999999999999996000, 0.0000000000000000000, 0.0000000000000000000 ) ) ;
#78 = AXIS2_PLACEMENT_3D ( 'NONE', #77, #186, #185 ) ;
#79 = FACE_OUTER_BOUND ( 'NONE', #30, .T. ) ;
#80 = DIRECTION ( 'NONE',  ( -1.000000000000000000, 0.0000000000000000000, 0.0000000000000000000 ) ) ;
#81 = VECTOR ( 'NONE', #80, 39.37007874015748100 ) ;
#82 = CARTESIAN_POINT ( 'NONE',  ( -1.721125226614714300, 6.490628035480972400E-017, -0.5300000000000000300 ) ) ;
#83 =( GEOMETRIC_REPRESENTATION_CONTEXT ( 3 ) GLOBAL_UNCERTAINTY_ASSIGNED_CONTEXT ( ( #84 ) ) GLOBAL_UNIT_ASSIGNED_CONTEXT ( ( #92, #91, #90 ) ) REPRESENTATION_CONTEXT ( 'NONE', 'WORKASPACE' ) );
#84 = UNCERTAINTY_MEASURE_WITH_UNIT (LENGTH_MEASURE( 1.000000000000000100E-005 ), #92, 'distance_accuracy_value', 'NONE');
#85 = ORGANIZATION ( 'UNSPECIFIED', 'UNSPECIFIED', '' ) ;
#86 = PERSON ( 'UNSPECIFIED', 'UNSPECIFIED', 'UNSPECIFIED', ('UNSPECIFIED'), ('UNSPECIFIED'), ('UNSPECIFIED') ) ;
#87 = PRODUCT ( 'SR-16-NY', 'SR-16-NY', '', ( #88 ) ) ;
#88 = MECHANICAL_CONTEXT ( 'NONE', #209, 'mechanical' ) ;
#89 = APPLICATION_PROTOCOL_DEFINITION ( 'international standard', 'config_control_design', 1994, #209 ) ;
#90 =( NAMED_UNIT ( * ) SI_UNIT ( $, .STERADIAN. ) SOLID_ANGLE_UNIT ( ) );
#91 =( NAMED_UNIT ( * ) PLANE_ANGLE_UNIT ( ) SI_UNIT ( $, .RADIAN. ) );
#92 =( CONVERSION_BASED_UNIT ( 'INCH', #93 ) LENGTH_UNIT ( ) NAMED_UNIT ( #135 ) );
#93 = LENGTH_MEASURE_WITH_UNIT ( LENGTH_MEASURE( 0.02539999999999999900 ), #136 );
#94 = CARTESIAN_POINT ( 'NONE',  ( 0.0000000000000000000, 5.449678256205722000E-017, -0.4450000000000000100 ) ) ;
#95 = LINE ( 'NONE', #118, #117 ) ;
#96 = VECTOR ( 'NONE', #108, 39.37007874015748100 ) ;
#97 = DIRECTION ( 'NONE',  ( 1.000000000000000000, 0.0000000000000000000, 0.0000000000000000000 ) ) ;
#98 = DIRECTION ( 'NONE',  ( 0.0000000000000000000, 0.0000000000000000000, 1.000000000000000000 ) ) ;
#99 = DIRECTION ( 'NONE',  ( 0.0000000000000000000, 0.0000000000000000000, 1.000000000000000000 ) ) ;
#100 = DIRECTION ( 'NONE',  ( -1.000000000000000000, 0.0000000000000000000, 0.0000000000000000000 ) ) ;
#101 = CARTESIAN_POINT ( 'NONE',  ( 0.07999999999999996000, 0.0000000000000000000, 0.0000000000000000000 ) ) ;
#102 = AXIS2_PLACEMENT_3D ( 'NONE', #101, #100, #99 ) ;
#103 = CIRCLE ( 'NONE', #102, 0.4450000000000000100 ) ;
#104 = DIRECTION ( 'NONE',  ( 0.0000000000000000000, 0.0000000000000000000, 1.000000000000000000 ) ) ;
#105 = DIRECTION ( 'NONE',  ( -1.000000000000000000, 0.0000000000000000000, 0.0000000000000000000 ) ) ;
#106 = AXIS2_PLACEMENT_3D ( 'NONE', #188, #105, #104 ) ;
#107 = CIRCLE ( 'NONE', #106, 0.4450000000000000100 ) ;
#108 = DIRECTION ( 'NONE',  ( -1.000000000000000000, 0.0000000000000000000, 0.0000000000000000000 ) ) ;
#109 = CARTESIAN_POINT ( 'NONE',  ( -1.721125226614714300, 5.449678256205722000E-017, -0.4450000000000000100 ) ) ;
#110 = LINE ( 'NONE', #109, #96 ) ;
#111 = CARTESIAN_POINT ( 'NONE',  ( 0.0000000000000000000, 0.0000000000000000000, 0.4450000000000000100 ) ) ;
#112 = DIRECTION ( 'NONE',  ( -1.000000000000000000, 0.0000000000000000000, 0.0000000000000000000 ) ) ;
#113 = CARTESIAN_POINT ( 'NONE',  ( -1.721125226614714300, 0.0000000000000000000, 0.0000000000000000000 ) ) ;
#114 = AXIS2_PLACEMENT_3D ( 'NONE', #113, #112, #184 ) ;
#115 = CYLINDRICAL_SURFACE ( 'NONE', #114, 0.5300000000000000300 ) ;
#116 = DIRECTION ( 'NONE',  ( -1.000000000000000000, 0.0000000000000000000, 0.0000000000000000000 ) ) ;
#117 = VECTOR ( 'NONE', #116, 39.37007874015748100 ) ;
#118 = CARTESIAN_POINT ( 'NONE',  ( -1.721125226614714300, 0.0000000000000000000, 0.4450000000000000100 ) ) ;
#119 = DIRECTION ( 'NONE',  ( 0.0000000000000000000, 0.0000000000000000000, 1.000000000000000000 ) ) ;
#120 = DIRECTION ( 'NONE',  ( -1.000000000000000000, 0.0000000000000000000, 0.0000000000000000000 ) ) ;
#121 = CYLINDRICAL_SURFACE ( 'NONE', #205, 0.4450000000000000100 ) ;
#122 = FACE_OUTER_BOUND ( 'NONE', #32, .T. ) ;
#123 = CARTESIAN_POINT ( 'NONE',  ( 0.07999999999999996000, 5.449678256205722000E-017, -0.4450000000000000100 ) ) ;
#124 = DIRECTION ( 'NONE',  ( 0.0000000000000000000, 0.0000000000000000000, 1.000000000000000000 ) ) ;
#125 = DIRECTION ( 'NONE',  ( -1.000000000000000000, 0.0000000000000000000, 0.0000000000000000000 ) ) ;
#126 = CARTESIAN_POINT ( 'NONE',  ( 0.08000000000000000200, -0.4450000000000000100, 0.0000000000000000000 ) ) ;
#127 = AXIS2_PLACEMENT_3D ( 'NONE', #126, #160, #159 ) ;
#128 = CARTESIAN_POINT ( 'NONE',  ( 0.07999999999999996000, 0.0000000000000000000, 0.0000000000000000000 ) ) ;
#129 = AXIS2_PLACEMENT_3D ( 'NONE', #162, #120, #119 ) ;
#130 = CIRCLE ( 'NONE', #129, 0.5300000000000000300 ) ;
#131 = CARTESIAN_POINT ( 'NONE',  ( 0.07999999999999996000, 0.0000000000000000000, 0.0000000000000000000 ) ) ;
#132 = AXIS2_PLACEMENT_3D ( 'NONE', #131, #182, #181 ) ;
#133 = CIRCLE ( 'NONE', #132, 0.5300000000000000300 ) ;
#134 = CARTESIAN_POINT ( 'NONE',  ( 0.0000000000000000000, 0.0000000000000000000, 0.5300000000000000300 ) ) ;
#135 = DIMENSIONAL_EXPONENTS ( 1.000000000000000000, 0.0000000000000000000, 0.0000000000000000000, 0.0000000000000000000, 0.0000000000000000000, 0.0000000000000000000, 0.0000000000000000000 ) ;
#136 =( LENGTH_UNIT ( ) NAMED_UNIT ( * ) SI_UNIT ( $, .METRE. ) );
#137 = DIRECTION ( 'NONE',  ( 0.0000000000000000000, 0.0000000000000000000, 1.000000000000000000 ) ) ;
#138 = AXIS2_PLACEMENT_3D ( 'NONE', #192, #193, #137 ) ;
#139 = CYLINDRICAL_SURFACE ( 'NONE', #138, 0.4450000000000000100 ) ;
#140 = LOCAL_TIME ( 13, 39, 57.00000000000000000, #141 ) ;
#141 = COORDINATED_UNIVERSAL_TIME_OFFSET ( 5, 30, .AHEAD. ) ;
#142 = APPROVAL_PERSON_ORGANIZATION ( #146, #144, #143 ) ;
#143 = APPROVAL_ROLE ( '' ) ;
#144 = APPROVAL ( #145, 'UNSPECIFIED' ) ;
#145 = APPROVAL_STATUS ( 'not_yet_approved' ) ;
#146 = PERSON_AND_ORGANIZATION ( #86, #85 ) ;
#147 = PRODUCT_DEFINITION ( 'UNKNOWN', '', #224, #148 ) ;
#148 = DESIGN_CONTEXT ( 'detailed design', #150, 'design' ) ;
#149 = APPLICATION_PROTOCOL_DEFINITION ( 'international standard', 'config_control_design', 1994, #150 ) ;
#150 = APPLICATION_CONTEXT ( 'configuration controlled 3d designs of mechanical parts and assemblies' ) ;
#151 = CC_DESIGN_PERSON_AND_ORGANIZATION_ASSIGNMENT ( #153, #152, ( #87 ) ) ;
#152 = PERSON_AND_ORGANIZATION_ROLE ( 'design_owner' ) ;
#153 = PERSON_AND_ORGANIZATION ( #86, #85 ) ;
#154 = DIRECTION ( 'NONE',  ( -1.000000000000000000, 0.0000000000000000000, 0.0000000000000000000 ) ) ;
#155 = VECTOR ( 'NONE', #154, 39.37007874015748100 ) ;
#156 = CARTESIAN_POINT ( 'NONE',  ( -1.721125226614714300, 0.0000000000000000000, 0.5300000000000000300 ) ) ;
#157 = LINE ( 'NONE', #156, #155 ) ;
#158 = DIRECTION ( 'NONE',  ( 0.0000000000000000000, 0.0000000000000000000, 1.000000000000000000 ) ) ;
#159 = DIRECTION ( 'NONE',  ( 0.0000000000000000000, 0.0000000000000000000, -1.000000000000000000 ) ) ;
#160 = DIRECTION ( 'NONE',  ( 1.000000000000000000, 0.0000000000000000000, 0.0000000000000000000 ) ) ;
#161 = CARTESIAN_POINT ( 'NONE',  ( 0.0000000000000000000, 0.0000000000000000000, 0.0000000000000000000 ) ) ;
#162 = CARTESIAN_POINT ( 'NONE',  ( 0.0000000000000000000, 0.0000000000000000000, 0.0000000000000000000 ) ) ;
#163 = DATE_AND_TIME ( #164, #165 ) ;
#164 = CALENDAR_DATE ( 2008, 29, 3 ) ;
#165 = LOCAL_TIME ( 13, 39, 57.00000000000000000, #166 ) ;
#166 = COORDINATED_UNIVERSAL_TIME_OFFSET ( 5, 30, .AHEAD. ) ;
#167 = CC_DESIGN_PERSON_AND_ORGANIZATION_ASSIGNMENT ( #169, #168, ( #147 ) ) ;
#168 = PERSON_AND_ORGANIZATION_ROLE ( 'creator' ) ;
#169 = PERSON_AND_ORGANIZATION ( #86, #85 ) ;
#170 = CC_DESIGN_APPROVAL ( #144, ( #147 ) ) ;
#171 = APPROVAL_DATE_TIME ( #172, #144 ) ;
#172 = DATE_AND_TIME ( #173, #140 ) ;
#173 = CALENDAR_DATE ( 2008, 29, 3 ) ;
#174 = AXIS2_PLACEMENT_3D ( 'NONE', #191, #190, #189 ) ;
#175 = DIRECTION ( 'NONE',  ( -1.000000000000000000, 0.0000000000000000000, 0.0000000000000000000 ) ) ;
#176 = CARTESIAN_POINT ( 'NONE',  ( 1.071530559594580100E-017, -0.4450000000000000100, 0.0000000000000000000 ) ) ;
#177 = AXIS2_PLACEMENT_3D ( 'NONE', #176, #175, #196 ) ;
#178 = PLANE ( 'NONE',  #177 ) ;
#179 = FACE_BOUND ( 'NONE', #16, .T. ) ;
#180 = FACE_OUTER_BOUND ( 'NONE', #22, .T. ) ;
#181 = DIRECTION ( 'NONE',  ( 0.0000000000000000000, 0.0000000000000000000, 1.000000000000000000 ) ) ;
#182 = DIRECTION ( 'NONE',  ( -1.000000000000000000, 0.0000000000000000000, 0.0000000000000000000 ) ) ;
#183 = LINE ( 'NONE', #82, #81 ) ;
#184 = DIRECTION ( 'NONE',  ( 0.0000000000000000000, 0.0000000000000000000, 1.000000000000000000 ) ) ;
#185 = DIRECTION ( 'NONE',  ( 0.0000000000000000000, 0.0000000000000000000, 1.000000000000000000 ) ) ;
#186 = DIRECTION ( 'NONE',  ( -1.000000000000000000, 0.0000000000000000000, 0.0000000000000000000 ) ) ;
#187 = CIRCLE ( 'NONE', #78, 0.5300000000000000300 ) ;
#188 = CARTESIAN_POINT ( 'NONE',  ( 0.0000000000000000000, 0.0000000000000000000, 0.0000000000000000000 ) ) ;
#189 = DIRECTION ( 'NONE',  ( 0.0000000000000000000, 0.0000000000000000000, 1.000000000000000000 ) ) ;
#190 = DIRECTION ( 'NONE',  ( -1.000000000000000000, 0.0000000000000000000, 0.0000000000000000000 ) ) ;
#191 = CARTESIAN_POINT ( 'NONE',  ( 0.0000000000000000000, 0.0000000000000000000, 0.0000000000000000000 ) ) ;
#192 = CARTESIAN_POINT ( 'NONE',  ( -1.721125226614714300, 0.0000000000000000000, 0.0000000000000000000 ) ) ;
#193 = DIRECTION ( 'NONE',  ( -1.000000000000000000, 0.0000000000000000000, 0.0000000000000000000 ) ) ;
#194 = FACE_OUTER_BOUND ( 'NONE', #42, .T. ) ;
#195 = CARTESIAN_POINT ( 'NONE',  ( 0.07999999999999996000, 6.490628035480972400E-017, -0.5300000000000000300 ) ) ;
#196 = DIRECTION ( 'NONE',  ( 0.0000000000000000000, 0.0000000000000000000, 1.000000000000000000 ) ) ;
#197 = CARTESIAN_POINT ( 'NONE',  ( 0.0000000000000000000, 0.0000000000000000000, 0.0000000000000000000 ) ) ;
#198 = AXIS2_PLACEMENT_3D ( 'NONE', #197, #98, #97 ) ;
#199 = ADVANCED_BREP_SHAPE_REPRESENTATION ( 'SR-16-NY', ( #54, #198 ), #83 ) ;
#200 = CIRCLE ( 'NONE', #174, 0.4450000000000000100 ) ;
#201 = CARTESIAN_POINT ( 'NONE',  ( 0.07999999999999996000, 0.0000000000000000000, 0.4450000000000000100 ) ) ;
#202 = DIRECTION ( 'NONE',  ( 0.0000000000000000000, 0.0000000000000000000, 1.000000000000000000 ) ) ;
#203 = DIRECTION ( 'NONE',  ( -1.000000000000000000, 0.0000000000000000000, 0.0000000000000000000 ) ) ;
#204 = CARTESIAN_POINT ( 'NONE',  ( -1.721125226614714300, 0.0000000000000000000, 0.0000000000000000000 ) ) ;
#205 = AXIS2_PLACEMENT_3D ( 'NONE', #204, #203, #202 ) ;
#206 = PLANE ( 'NONE',  #127 ) ;
#207 = FACE_OUTER_BOUND ( 'NONE', #60, .T. ) ;
#208 = FACE_BOUND ( 'NONE', #28, .T. ) ;
#209 = APPLICATION_CONTEXT ( 'configuration controlled 3d designs of mechanical parts and assemblies' ) ;
#210 = CC_DESIGN_PERSON_AND_ORGANIZATION_ASSIGNMENT ( #212, #211, ( #224 ) ) ;
#211 = PERSON_AND_ORGANIZATION_ROLE ( 'creator' ) ;
#212 = PERSON_AND_ORGANIZATION ( #86, #85 ) ;
#213 = CC_DESIGN_APPROVAL ( #221, ( #224 ) ) ;
#214 = APPROVAL_DATE_TIME ( #215, #221 ) ;
#215 = DATE_AND_TIME ( #216, #217 ) ;
#216 = CALENDAR_DATE ( 2008, 29, 3 ) ;
#217 = LOCAL_TIME ( 13, 39, 57.00000000000000000, #218 ) ;
#218 = COORDINATED_UNIVERSAL_TIME_OFFSET ( 5, 30, .AHEAD. ) ;
#219 = APPROVAL_PERSON_ORGANIZATION ( #223, #221, #220 ) ;
#220 = APPROVAL_ROLE ( '' ) ;
#221 = APPROVAL ( #222, 'UNSPECIFIED' ) ;
#222 = APPROVAL_STATUS ( 'not_yet_approved' ) ;
#223 = PERSON_AND_ORGANIZATION ( #86, #85 ) ;
#224 = PRODUCT_DEFINITION_FORMATION_WITH_SPECIFIED_SOURCE ( 'ANY', '', #87, .NOT_KNOWN. ) ;
#225 = CC_DESIGN_DATE_AND_TIME_ASSIGNMENT ( #163, #226, ( #147 ) ) ;
#226 = DATE_TIME_ROLE ( 'creation_date' ) ;
#227 = DIRECTION ( 'NONE',  ( -1.000000000000000000, 0.0000000000000000000, 0.0000000000000000000 ) ) ;
#228 = AXIS2_PLACEMENT_3D ( 'NONE', #128, #125, #124 ) ;
#229 = CIRCLE ( 'NONE', #228, 0.4450000000000000100 ) ;
#230 = AXIS2_PLACEMENT_3D ( 'NONE', #161, #227, #158 ) ;
#231 = CIRCLE ( 'NONE', #230, 0.5300000000000000300 ) ;
#232 = LOCAL_TIME ( 13, 39, 57.00000000000000000, #247 ) ;
#233 = LOCAL_TIME ( 13, 39, 57.00000000000000000, #234 ) ;
#234 = COORDINATED_UNIVERSAL_TIME_OFFSET ( 5, 30, .AHEAD. ) ;
#235 = SHAPE_DEFINITION_REPRESENTATION ( #245, #199 ) ;
#236 = DATE_AND_TIME ( #237, #233 ) ;
#237 = CALENDAR_DATE ( 2008, 29, 3 ) ;
#238 = PERSON_AND_ORGANIZATION ( #86, #85 ) ;
#239 = PRODUCT_RELATED_PRODUCT_CATEGORY ( 'detail', '', ( #87 ) ) ;
#240 = CC_DESIGN_DATE_AND_TIME_ASSIGNMENT ( #243, #244, ( #38 ) ) ;
#241 = CC_DESIGN_APPROVAL ( #249, ( #38 ) ) ;
#242 = APPROVAL_DATE_TIME ( #236, #249 ) ;
#243 = DATE_AND_TIME ( #246, #232 ) ;
#244 = DATE_TIME_ROLE ( 'classification_date' ) ;
#245 = PRODUCT_DEFINITION_SHAPE ( 'NONE', 'NONE',  #147 ) ;
#246 = CALENDAR_DATE ( 2008, 29, 3 ) ;
#247 = COORDINATED_UNIVERSAL_TIME_OFFSET ( 5, 30, .AHEAD. ) ;
#248 = CC_DESIGN_SECURITY_CLASSIFICATION ( #38, ( #224 ) ) ;
#249 = APPROVAL ( #250, 'UNSPECIFIED' ) ;
#250 = APPROVAL_STATUS ( 'not_yet_approved' ) ;
#251 = APPROVAL_PERSON_ORGANIZATION ( #238, #249, #252 ) ;
#252 = APPROVAL_ROLE ( '' ) ;
ENDSEC;
END-ISO-10303-21;
