ISO-10303-21;
HEADER;
FILE_DESCRIPTION (( 'STEP AP203' ),
    '1' );
FILE_NAME ('SR-21-VT.STEP',
    '2008-06-25T05:50:52',
    ( 'BSI05' ),
    ( 'BAYSTATE' ),
    'SwSTEP 2.0',
    'SolidWorks 2007',
    '' );
FILE_SCHEMA (( 'CONFIG_CONTROL_DESIGN' ));
ENDSEC;

DATA;
#1 = ADVANCED_FACE ( 'NONE', ( #117 ), #68, .F. ) ;
#2 = ORIENTED_EDGE ( 'NONE', *, *, #45, .T. ) ;
#3 = CLOSED_SHELL ( 'NONE', ( #1, #41, #11, #43, #54, #36 ) ) ;
#4 = ORIENTED_EDGE ( 'NONE', *, *, #40, .T. ) ;
#5 = ORIENTED_EDGE ( 'NONE', *, *, #51, .F. ) ;
#6 = ORIENTED_EDGE ( 'NONE', *, *, #48, .F. ) ;
#7 = PERSON ( 'UNSPECIFIED', 'UNSPECIFIED', 'UNSPECIFIED', ('UNSPECIFIED'), ('UNSPECIFIED'), ('UNSPECIFIED') ) ;
#8 = MANIFOLD_SOLID_BREP ( 'NONE', #3 ) ;
#9 = EDGE_LOOP ( 'NONE', ( #26, #27 ) ) ;
#10 = EDGE_LOOP ( 'NONE', ( #55, #57, #47, #39 ) ) ;
#11 = ADVANCED_FACE ( 'NONE', ( #115, #114 ), #72, .T. ) ;
#12 = EDGE_CURVE ( 'NONE', #20, #14, #78, .T. ) ;
#13 = ORIENTED_EDGE ( 'NONE', *, *, #12, .F. ) ;
#14 = VERTEX_POINT ( 'NONE', #74 ) ;
#15 = ORIENTED_EDGE ( 'NONE', *, *, #16, .T. ) ;
#16 = EDGE_CURVE ( 'NONE', #21, #22, #64, .T. ) ;
#17 = EDGE_LOOP ( 'NONE', ( #29, #30, #65, #73 ) ) ;
#18 = ORIENTED_EDGE ( 'NONE', *, *, #19, .T. ) ;
#19 = EDGE_CURVE ( 'NONE', #20, #21, #85, .T. ) ;
#20 = VERTEX_POINT ( 'NONE', #80 ) ;
#21 = VERTEX_POINT ( 'NONE', #79 ) ;
#22 = VERTEX_POINT ( 'NONE', #104 ) ;
#23 = EDGE_CURVE ( 'NONE', #14, #22, #103, .T. ) ;
#24 = ORIENTED_EDGE ( 'NONE', *, *, #23, .F. ) ;
#25 = EDGE_LOOP ( 'NONE', ( #6, #5, #4, #2 ) ) ;
#26 = ORIENTED_EDGE ( 'NONE', *, *, #23, .T. ) ;
#27 = ORIENTED_EDGE ( 'NONE', *, *, #44, .T. ) ;
#28 = ORIENTED_EDGE ( 'NONE', *, *, #37, .F. ) ;
#29 = ORIENTED_EDGE ( 'NONE', *, *, #16, .F. ) ;
#30 = ORIENTED_EDGE ( 'NONE', *, *, #31, .T. ) ;
#31 = EDGE_CURVE ( 'NONE', #21, #20, #126, .T. ) ;
#32 = EDGE_LOOP ( 'NONE', ( #33, #35 ) ) ;
#33 = ORIENTED_EDGE ( 'NONE', *, *, #19, .F. ) ;
#34 = EDGE_LOOP ( 'NONE', ( #46, #28 ) ) ;
#35 = ORIENTED_EDGE ( 'NONE', *, *, #31, .F. ) ;
#36 = ADVANCED_FACE ( 'NONE', ( #121 ), #120, .F. ) ;
#37 = EDGE_CURVE ( 'NONE', #58, #38, #109, .T. ) ;
#38 = VERTEX_POINT ( 'NONE', #105 ) ;
#39 = ORIENTED_EDGE ( 'NONE', *, *, #40, .F. ) ;
#40 = EDGE_CURVE ( 'NONE', #52, #38, #98, .T. ) ;
#41 = ADVANCED_FACE ( 'NONE', ( #94 ), #93, .T. ) ;
#42 = EDGE_LOOP ( 'NONE', ( #18, #15, #24, #13 ) ) ;
#43 = ADVANCED_FACE ( 'NONE', ( #131 ), #136, .T. ) ;
#44 = EDGE_CURVE ( 'NONE', #22, #14, #130, .T. ) ;
#45 = EDGE_CURVE ( 'NONE', #38, #58, #134, .T. ) ;
#46 = ORIENTED_EDGE ( 'NONE', *, *, #45, .F. ) ;
#47 = ORIENTED_EDGE ( 'NONE', *, *, #37, .T. ) ;
#48 = EDGE_CURVE ( 'NONE', #56, #58, #186, .T. ) ;
#49 = EDGE_LOOP ( 'NONE', ( #50, #53 ) ) ;
#50 = ORIENTED_EDGE ( 'NONE', *, *, #51, .T. ) ;
#51 = EDGE_CURVE ( 'NONE', #52, #56, #172, .T. ) ;
#52 = VERTEX_POINT ( 'NONE', #183 ) ;
#53 = ORIENTED_EDGE ( 'NONE', *, *, #59, .T. ) ;
#54 = ADVANCED_FACE ( 'NONE', ( #173, #151 ), #162, .T. ) ;
#55 = ORIENTED_EDGE ( 'NONE', *, *, #59, .F. ) ;
#56 = VERTEX_POINT ( 'NONE', #175 ) ;
#57 = ORIENTED_EDGE ( 'NONE', *, *, #48, .T. ) ;
#58 = VERTEX_POINT ( 'NONE', #174 ) ;
#59 = EDGE_CURVE ( 'NONE', #56, #52, #171, .T. ) ;
#60 = DIRECTION ( 'NONE',  ( 0.0000000000000000000, 0.0000000000000000000, 1.000000000000000000 ) ) ;
#61 = DIRECTION ( 'NONE',  ( -1.000000000000000000, 0.0000000000000000000, 0.0000000000000000000 ) ) ;
#62 = VECTOR ( 'NONE', #61, 39.37007874015748100 ) ;
#63 = CARTESIAN_POINT ( 'NONE',  ( -1.721125226614714300, 8.082668874372531800E-017, -0.6600000000000000300 ) ) ;
#64 = LINE ( 'NONE', #63, #62 ) ;
#65 = ORIENTED_EDGE ( 'NONE', *, *, #12, .T. ) ;
#66 = DIRECTION ( 'NONE',  ( -1.000000000000000000, 0.0000000000000000000, 0.0000000000000000000 ) ) ;
#67 = AXIS2_PLACEMENT_3D ( 'NONE', #113, #66, #60 ) ;
#68 = CYLINDRICAL_SURFACE ( 'NONE', #67, 0.5550000000000000500 ) ;
#69 = DIRECTION ( 'NONE',  ( -1.000000000000000000, 0.0000000000000000000, 0.0000000000000000000 ) ) ;
#70 = CARTESIAN_POINT ( 'NONE',  ( 1.438912465741294200E-017, -0.5550000000000000500, 0.0000000000000000000 ) ) ;
#71 = AXIS2_PLACEMENT_3D ( 'NONE', #70, #69, #116 ) ;
#72 = PLANE ( 'NONE',  #71 ) ;
#73 = ORIENTED_EDGE ( 'NONE', *, *, #44, .F. ) ;
#74 = CARTESIAN_POINT ( 'NONE',  ( 0.0000000000000000000, 0.0000000000000000000, 0.6600000000000000300 ) ) ;
#75 = DIRECTION ( 'NONE',  ( -1.000000000000000000, 0.0000000000000000000, 0.0000000000000000000 ) ) ;
#76 = VECTOR ( 'NONE', #75, 39.37007874015748100 ) ;
#77 = CARTESIAN_POINT ( 'NONE',  ( -1.721125226614714300, 0.0000000000000000000, 0.6600000000000000300 ) ) ;
#78 = LINE ( 'NONE', #77, #76 ) ;
#79 = CARTESIAN_POINT ( 'NONE',  ( 0.07999999999999996000, 8.082668874372531800E-017, -0.6600000000000000300 ) ) ;
#80 = CARTESIAN_POINT ( 'NONE',  ( 0.07999999999999996000, 0.0000000000000000000, 0.6600000000000000300 ) ) ;
#81 = DIRECTION ( 'NONE',  ( 0.0000000000000000000, 0.0000000000000000000, 1.000000000000000000 ) ) ;
#82 = DIRECTION ( 'NONE',  ( -1.000000000000000000, 0.0000000000000000000, 0.0000000000000000000 ) ) ;
#83 = CARTESIAN_POINT ( 'NONE',  ( 0.07999999999999996000, 0.0000000000000000000, 0.0000000000000000000 ) ) ;
#84 = AXIS2_PLACEMENT_3D ( 'NONE', #83, #82, #81 ) ;
#85 = CIRCLE ( 'NONE', #84, 0.6600000000000000300 ) ;
#86 = CARTESIAN_POINT ( 'NONE',  ( 0.0000000000000000000, 0.0000000000000000000, 0.0000000000000000000 ) ) ;
#87 = DIRECTION ( 'NONE',  ( 0.0000000000000000000, 0.0000000000000000000, 1.000000000000000000 ) ) ;
#88 = DIRECTION ( 'NONE',  ( -1.000000000000000000, 0.0000000000000000000, 0.0000000000000000000 ) ) ;
#89 = CARTESIAN_POINT ( 'NONE',  ( -1.721125226614714300, 0.0000000000000000000, 0.0000000000000000000 ) ) ;
#90 = AXIS2_PLACEMENT_3D ( 'NONE', #89, #88, #87 ) ;
#91 = DIRECTION ( 'NONE',  ( 0.0000000000000000000, 0.0000000000000000000, 1.000000000000000000 ) ) ;
#92 = DIRECTION ( 'NONE',  ( -1.000000000000000000, 0.0000000000000000000, 0.0000000000000000000 ) ) ;
#93 = CYLINDRICAL_SURFACE ( 'NONE', #90, 0.6600000000000000300 ) ;
#94 = FACE_OUTER_BOUND ( 'NONE', #42, .T. ) ;
#95 = DIRECTION ( 'NONE',  ( -1.000000000000000000, 0.0000000000000000000, 0.0000000000000000000 ) ) ;
#96 = VECTOR ( 'NONE', #95, 39.37007874015748100 ) ;
#97 = CARTESIAN_POINT ( 'NONE',  ( -1.721125226614714300, 0.0000000000000000000, 0.5550000000000000500 ) ) ;
#98 = LINE ( 'NONE', #97, #96 ) ;
#99 = DIRECTION ( 'NONE',  ( 0.0000000000000000000, 0.0000000000000000000, 1.000000000000000000 ) ) ;
#100 = DIRECTION ( 'NONE',  ( -1.000000000000000000, 0.0000000000000000000, 0.0000000000000000000 ) ) ;
#101 = CARTESIAN_POINT ( 'NONE',  ( 0.0000000000000000000, 0.0000000000000000000, 0.0000000000000000000 ) ) ;
#102 = AXIS2_PLACEMENT_3D ( 'NONE', #101, #100, #99 ) ;
#103 = CIRCLE ( 'NONE', #102, 0.6600000000000000300 ) ;
#104 = CARTESIAN_POINT ( 'NONE',  ( 0.0000000000000000000, 8.082668874372531800E-017, -0.6600000000000000300 ) ) ;
#105 = CARTESIAN_POINT ( 'NONE',  ( 0.0000000000000000000, 0.0000000000000000000, 0.5550000000000000500 ) ) ;
#106 = DIRECTION ( 'NONE',  ( 0.0000000000000000000, 0.0000000000000000000, 1.000000000000000000 ) ) ;
#107 = DIRECTION ( 'NONE',  ( -1.000000000000000000, 0.0000000000000000000, 0.0000000000000000000 ) ) ;
#108 = AXIS2_PLACEMENT_3D ( 'NONE', #112, #107, #106 ) ;
#109 = CIRCLE ( 'NONE', #108, 0.5550000000000000500 ) ;
#110 = DIRECTION ( 'NONE',  ( 0.0000000000000000000, 0.0000000000000000000, 1.000000000000000000 ) ) ;
#111 = DIRECTION ( 'NONE',  ( -1.000000000000000000, 0.0000000000000000000, 0.0000000000000000000 ) ) ;
#112 = CARTESIAN_POINT ( 'NONE',  ( 0.0000000000000000000, 0.0000000000000000000, 0.0000000000000000000 ) ) ;
#113 = CARTESIAN_POINT ( 'NONE',  ( -1.721125226614714300, 0.0000000000000000000, 0.0000000000000000000 ) ) ;
#114 = FACE_BOUND ( 'NONE', #34, .T. ) ;
#115 = FACE_OUTER_BOUND ( 'NONE', #9, .T. ) ;
#116 = DIRECTION ( 'NONE',  ( 0.0000000000000000000, 0.0000000000000000000, 1.000000000000000000 ) ) ;
#117 = FACE_OUTER_BOUND ( 'NONE', #10, .T. ) ;
#118 = CARTESIAN_POINT ( 'NONE',  ( -1.721125226614714300, 0.0000000000000000000, 0.0000000000000000000 ) ) ;
#119 = AXIS2_PLACEMENT_3D ( 'NONE', #118, #111, #110 ) ;
#120 = CYLINDRICAL_SURFACE ( 'NONE', #119, 0.5550000000000000500 ) ;
#121 = FACE_OUTER_BOUND ( 'NONE', #25, .T. ) ;
#122 = DIRECTION ( 'NONE',  ( 0.0000000000000000000, 0.0000000000000000000, 1.000000000000000000 ) ) ;
#123 = DIRECTION ( 'NONE',  ( -1.000000000000000000, 0.0000000000000000000, 0.0000000000000000000 ) ) ;
#124 = CARTESIAN_POINT ( 'NONE',  ( 0.07999999999999996000, 0.0000000000000000000, 0.0000000000000000000 ) ) ;
#125 = AXIS2_PLACEMENT_3D ( 'NONE', #124, #123, #122 ) ;
#126 = CIRCLE ( 'NONE', #125, 0.6600000000000000300 ) ;
#127 = DIRECTION ( 'NONE',  ( 0.0000000000000000000, 0.0000000000000000000, 1.000000000000000000 ) ) ;
#128 = DIRECTION ( 'NONE',  ( 0.0000000000000000000, 0.0000000000000000000, 1.000000000000000000 ) ) ;
#129 = DIRECTION ( 'NONE',  ( -1.000000000000000000, 0.0000000000000000000, 0.0000000000000000000 ) ) ;
#130 = CIRCLE ( 'NONE', #140, 0.6600000000000000300 ) ;
#131 = FACE_OUTER_BOUND ( 'NONE', #17, .T. ) ;
#132 = CARTESIAN_POINT ( 'NONE',  ( -1.721125226614714300, 0.0000000000000000000, 0.0000000000000000000 ) ) ;
#133 = AXIS2_PLACEMENT_3D ( 'NONE', #86, #92, #91 ) ;
#134 = CIRCLE ( 'NONE', #133, 0.5550000000000000500 ) ;
#135 = APPROVAL_STATUS ( 'not_yet_approved' ) ;
#136 = CYLINDRICAL_SURFACE ( 'NONE', #137, 0.6600000000000000300 ) ;
#137 = AXIS2_PLACEMENT_3D ( 'NONE', #132, #138, #127 ) ;
#138 = DIRECTION ( 'NONE',  ( -1.000000000000000000, 0.0000000000000000000, 0.0000000000000000000 ) ) ;
#139 = CARTESIAN_POINT ( 'NONE',  ( 0.0000000000000000000, 0.0000000000000000000, 0.0000000000000000000 ) ) ;
#140 = AXIS2_PLACEMENT_3D ( 'NONE', #139, #129, #128 ) ;
#141 = APPROVAL_ROLE ( '' ) ;
#142 = APPROVAL_PERSON_ORGANIZATION ( #198, #146, #141 ) ;
#143 = CC_DESIGN_APPROVAL ( #146, ( #191 ) ) ;
#144 = DATE_AND_TIME ( #148, #149 ) ;
#145 = COORDINATED_UNIVERSAL_TIME_OFFSET ( 5, 30, .AHEAD. ) ;
#146 = APPROVAL ( #135, 'UNSPECIFIED' ) ;
#147 = APPROVAL_DATE_TIME ( #144, #146 ) ;
#148 = CALENDAR_DATE ( 2008, 25, 6 ) ;
#149 = LOCAL_TIME ( 11, 20, 52.00000000000000000, #145 ) ;
#150 = AXIS2_PLACEMENT_3D ( 'NONE', #153, #157, #165 ) ;
#151 = FACE_OUTER_BOUND ( 'NONE', #32, .T. ) ;
#152 =( LENGTH_UNIT ( ) NAMED_UNIT ( * ) SI_UNIT ( $, .METRE. ) );
#153 = CARTESIAN_POINT ( 'NONE',  ( 0.07999999999999996000, 0.0000000000000000000, 0.0000000000000000000 ) ) ;
#154 =( NAMED_UNIT ( * ) SI_UNIT ( $, .STERADIAN. ) SOLID_ANGLE_UNIT ( ) );
#155 =( NAMED_UNIT ( * ) PLANE_ANGLE_UNIT ( ) SI_UNIT ( $, .RADIAN. ) );
#156 = CARTESIAN_POINT ( 'NONE',  ( -1.721125226614714300, 6.796789735267810000E-017, -0.5550000000000000500 ) ) ;
#157 = DIRECTION ( 'NONE',  ( -1.000000000000000000, 0.0000000000000000000, 0.0000000000000000000 ) ) ;
#158 = AXIS2_PLACEMENT_3D ( 'NONE', #178, #177, #176 ) ;
#159 = UNCERTAINTY_MEASURE_WITH_UNIT (LENGTH_MEASURE( 1.000000000000000100E-005 ), #160, 'distance_accuracy_value', 'NONE');
#160 =( CONVERSION_BASED_UNIT ( 'INCH', #161 ) LENGTH_UNIT ( ) NAMED_UNIT ( #187 ) );
#161 = LENGTH_MEASURE_WITH_UNIT ( LENGTH_MEASURE( 0.02539999999999999900 ), #152 );
#162 = PLANE ( 'NONE',  #158 ) ;
#163 = CARTESIAN_POINT ( 'NONE',  ( 0.0000000000000000000, 0.0000000000000000000, 0.0000000000000000000 ) ) ;
#164 = DIRECTION ( 'NONE',  ( -1.000000000000000000, 0.0000000000000000000, 0.0000000000000000000 ) ) ;
#165 = DIRECTION ( 'NONE',  ( 0.0000000000000000000, 0.0000000000000000000, 1.000000000000000000 ) ) ;
#166 = DIRECTION ( 'NONE',  ( 0.0000000000000000000, 0.0000000000000000000, 1.000000000000000000 ) ) ;
#167 = DIRECTION ( 'NONE',  ( -1.000000000000000000, 0.0000000000000000000, 0.0000000000000000000 ) ) ;
#168 = CARTESIAN_POINT ( 'NONE',  ( 0.07999999999999996000, 0.0000000000000000000, 0.0000000000000000000 ) ) ;
#169 = AXIS2_PLACEMENT_3D ( 'NONE', #168, #167, #166 ) ;
#170 = DIRECTION ( 'NONE',  ( 0.0000000000000000000, 0.0000000000000000000, 1.000000000000000000 ) ) ;
#171 = CIRCLE ( 'NONE', #169, 0.5550000000000000500 ) ;
#172 = CIRCLE ( 'NONE', #150, 0.5550000000000000500 ) ;
#173 = FACE_BOUND ( 'NONE', #49, .T. ) ;
#174 = CARTESIAN_POINT ( 'NONE',  ( 0.0000000000000000000, 6.796789735267810000E-017, -0.5550000000000000500 ) ) ;
#175 = CARTESIAN_POINT ( 'NONE',  ( 0.07999999999999996000, 6.796789735267810000E-017, -0.5550000000000000500 ) ) ;
#176 = DIRECTION ( 'NONE',  ( 0.0000000000000000000, 0.0000000000000000000, -1.000000000000000000 ) ) ;
#177 = DIRECTION ( 'NONE',  ( 1.000000000000000000, 0.0000000000000000000, 0.0000000000000000000 ) ) ;
#178 = CARTESIAN_POINT ( 'NONE',  ( 0.08000000000000000200, -0.5550000000000000500, 0.0000000000000000000 ) ) ;
#179 = PRODUCT ( 'SR-21-VT', 'SR-21-VT', '', ( #180 ) ) ;
#180 = MECHANICAL_CONTEXT ( 'NONE', #182, 'mechanical' ) ;
#181 = APPLICATION_PROTOCOL_DEFINITION ( 'international standard', 'config_control_design', 1994, #182 ) ;
#182 = APPLICATION_CONTEXT ( 'configuration controlled 3d designs of mechanical parts and assemblies' ) ;
#183 = CARTESIAN_POINT ( 'NONE',  ( 0.07999999999999996000, 0.0000000000000000000, 0.5550000000000000500 ) ) ;
#184 = DIRECTION ( 'NONE',  ( 1.000000000000000000, 0.0000000000000000000, 0.0000000000000000000 ) ) ;
#185 = AXIS2_PLACEMENT_3D ( 'NONE', #163, #170, #184 ) ;
#186 = LINE ( 'NONE', #156, #188 ) ;
#187 = DIMENSIONAL_EXPONENTS ( 1.000000000000000000, 0.0000000000000000000, 0.0000000000000000000, 0.0000000000000000000, 0.0000000000000000000, 0.0000000000000000000, 0.0000000000000000000 ) ;
#188 = VECTOR ( 'NONE', #164, 39.37007874015748100 ) ;
#189 = ADVANCED_BREP_SHAPE_REPRESENTATION ( 'SR-21-VT', ( #8, #185 ), #190 ) ;
#190 =( GEOMETRIC_REPRESENTATION_CONTEXT ( 3 ) GLOBAL_UNCERTAINTY_ASSIGNED_CONTEXT ( ( #159 ) ) GLOBAL_UNIT_ASSIGNED_CONTEXT ( ( #160, #155, #154 ) ) REPRESENTATION_CONTEXT ( 'NONE', 'WORKASPACE' ) );
#191 = PRODUCT_DEFINITION ( 'UNKNOWN', '', #220, #195 ) ;
#192 = CC_DESIGN_PERSON_AND_ORGANIZATION_ASSIGNMENT ( #194, #197, ( #179 ) ) ;
#193 = ORGANIZATION ( 'UNSPECIFIED', 'UNSPECIFIED', '' ) ;
#194 = PERSON_AND_ORGANIZATION ( #7, #193 ) ;
#195 = DESIGN_CONTEXT ( 'detailed design', #199, 'design' ) ;
#196 = APPLICATION_PROTOCOL_DEFINITION ( 'international standard', 'config_control_design', 1994, #199 ) ;
#197 = PERSON_AND_ORGANIZATION_ROLE ( 'design_owner' ) ;
#198 = PERSON_AND_ORGANIZATION ( #7, #193 ) ;
#199 = APPLICATION_CONTEXT ( 'configuration controlled 3d designs of mechanical parts and assemblies' ) ;
#200 = DATE_AND_TIME ( #223, #224 ) ;
#201 = COORDINATED_UNIVERSAL_TIME_OFFSET ( 5, 30, .AHEAD. ) ;
#202 = CC_DESIGN_PERSON_AND_ORGANIZATION_ASSIGNMENT ( #252, #210, ( #191 ) ) ;
#203 = PERSON_AND_ORGANIZATION_ROLE ( 'design_supplier' ) ;
#204 = PERSON_AND_ORGANIZATION ( #7, #193 ) ;
#205 = CC_DESIGN_PERSON_AND_ORGANIZATION_ASSIGNMENT ( #207, #206, ( #220 ) ) ;
#206 = PERSON_AND_ORGANIZATION_ROLE ( 'creator' ) ;
#207 = PERSON_AND_ORGANIZATION ( #7, #193 ) ;
#208 = CC_DESIGN_APPROVAL ( #250, ( #220 ) ) ;
#209 = APPROVAL_DATE_TIME ( #244, #250 ) ;
#210 = PERSON_AND_ORGANIZATION_ROLE ( 'creator' ) ;
#211 = DATE_AND_TIME ( #242, #243 ) ;
#212 = COORDINATED_UNIVERSAL_TIME_OFFSET ( 5, 30, .AHEAD. ) ;
#213 = CC_DESIGN_PERSON_AND_ORGANIZATION_ASSIGNMENT ( #215, #214, ( #216 ) ) ;
#214 = PERSON_AND_ORGANIZATION_ROLE ( 'classification_officer' ) ;
#215 = PERSON_AND_ORGANIZATION ( #7, #193 ) ;
#216 = SECURITY_CLASSIFICATION ( '', '', #217 ) ;
#217 = SECURITY_CLASSIFICATION_LEVEL ( 'unclassified' ) ;
#218 = CC_DESIGN_PERSON_AND_ORGANIZATION_ASSIGNMENT ( #204, #203, ( #220 ) ) ;
#219 = PERSON_AND_ORGANIZATION ( #7, #193 ) ;
#220 = PRODUCT_DEFINITION_FORMATION_WITH_SPECIFIED_SOURCE ( 'ANY', '', #179, .NOT_KNOWN. ) ;
#221 = CC_DESIGN_DATE_AND_TIME_ASSIGNMENT ( #200, #222, ( #191 ) ) ;
#222 = DATE_TIME_ROLE ( 'creation_date' ) ;
#223 = CALENDAR_DATE ( 2008, 25, 6 ) ;
#224 = LOCAL_TIME ( 11, 20, 52.00000000000000000, #201 ) ;
#225 = SHAPE_DEFINITION_REPRESENTATION ( #226, #189 ) ;
#226 = PRODUCT_DEFINITION_SHAPE ( 'NONE', 'NONE',  #191 ) ;
#227 = PRODUCT_RELATED_PRODUCT_CATEGORY ( 'detail', '', ( #179 ) ) ;
#228 = CC_DESIGN_SECURITY_CLASSIFICATION ( #216, ( #220 ) ) ;
#229 = CC_DESIGN_APPROVAL ( #237, ( #216 ) ) ;
#230 = APPROVAL_DATE_TIME ( #231, #237 ) ;
#231 = DATE_AND_TIME ( #232, #233 ) ;
#232 = CALENDAR_DATE ( 2008, 25, 6 ) ;
#233 = LOCAL_TIME ( 11, 20, 52.00000000000000000, #234 ) ;
#234 = COORDINATED_UNIVERSAL_TIME_OFFSET ( 5, 30, .AHEAD. ) ;
#235 = APPROVAL_PERSON_ORGANIZATION ( #239, #237, #236 ) ;
#236 = APPROVAL_ROLE ( '' ) ;
#237 = APPROVAL ( #238, 'UNSPECIFIED' ) ;
#238 = APPROVAL_STATUS ( 'not_yet_approved' ) ;
#239 = PERSON_AND_ORGANIZATION ( #7, #193 ) ;
#240 = CC_DESIGN_DATE_AND_TIME_ASSIGNMENT ( #211, #241, ( #216 ) ) ;
#241 = DATE_TIME_ROLE ( 'classification_date' ) ;
#242 = CALENDAR_DATE ( 2008, 25, 6 ) ;
#243 = LOCAL_TIME ( 11, 20, 52.00000000000000000, #212 ) ;
#244 = DATE_AND_TIME ( #245, #246 ) ;
#245 = CALENDAR_DATE ( 2008, 25, 6 ) ;
#246 = LOCAL_TIME ( 11, 20, 52.00000000000000000, #247 ) ;
#247 = COORDINATED_UNIVERSAL_TIME_OFFSET ( 5, 30, .AHEAD. ) ;
#248 = APPROVAL_PERSON_ORGANIZATION ( #219, #250, #249 ) ;
#249 = APPROVAL_ROLE ( '' ) ;
#250 = APPROVAL ( #251, 'UNSPECIFIED' ) ;
#251 = APPROVAL_STATUS ( 'not_yet_approved' ) ;
#252 = PERSON_AND_ORGANIZATION ( #7, #193 ) ;
ENDSEC;
END-ISO-10303-21;
